Song name
# A B C D E F G H I J K L M N O P Q R S T U V W X Y Z

Misc Computer Games - Guitar Hero 3 - Guitar Battle Vs Slash tab

-----------------------------------------------------------
		Slash Guitar Battle on Guitar Hero 3
-----------------------------------------------------------
Tabbed By : Ryan
Tuning: Standard: EADGBe
Email: RyanLangon@yahoo .com

e|------0--------------------------------------------------|
B|--------0------------------------------------------------|
G|--2b-------3b---2h3p2p0----2b-0-2p0----------------------|
D|-------------------------------------2p0-2p0-------------|
A|----------------------------------------------2p0--2-----|
E|---------------------------------------------------------|

e|--------12--------15-------12----------------------------|
B|------------12-15b------15br-----15-12---------------15b-|
G|-12-13-------------------------------14bh12p14p12--------|
D|-------------------------------------------------14p12---|
A|---------------------------------------------------------|
E|---------------------------------------------------------|

e|-----5-----7----8---9------8-----7------5----------------|
B|---------------------------------------------------------|
G|-2/6----7-----8-----9---8-----7------6------8b-----------|
D|---------------------------------------------------------|
A|---------------------------------------------------------|
E|---------------------------------------------------------|


e|-15b-12h15p12--12----------------------------------------|
B|-------------15--15b-12-15-12h15p12--12------------------|
G|-----------------------------------14--14b-12-14p12-14b--|
D|---------------------------------------------------------|
A|---------------------------------------------------------|
E|---------------------------------------------------------|

e|---------------------------------------------------------|
B|-------16b---10-12---------------------------------------|
G|-------16b----------11b----------------------------------|
D|---------------------------------------------------------|
A|---------------------------------------------------------|
E|--0------------------------------------------------------|

e|-----12--------------------------------------------------|
B|-15b----15-12--------------------------------------------|
G|--------------14b--12-----14p12-----12b------------------|
D|----------------------14---------14-----14-12----12h14---|
A|----------------------------------------------14---------|
E|---------------------------------------------------------|
Tap to rate this tab
 
# A B C D E F G H I J K L M N O P Q R S T U V W X Y Z