Song name
# A B C D E F G H I J K L M N O P Q R S T U V W X Y Z

Misc Computer Games - Castle Crashers - Store Theme Spanish Waltz tab

-----------------------------------------------------------------------------
             SPANISH WALTZ (Store Theme) - Castle Crashers
-----------------------------------------------------------------------------
Tabbed by: Kevin Hoopes
Email: hoopesk@gmail.com

Tuning: Standard

okay, this is my first tab ever, but im sure its the best one for this song
 out there. please rate and/or send feedback to let me know what i could do
better. thanks for checking this out

e|------------------------6---9-8-6-----8--8-8-8--8-6------------------------|
B|-9h11-9h11-9h11-6-7-8-9---9-------7~----------------9-7-6---6~-------------|
G|----------------------------------------------------------8----------------|
D|---------------------------------------------------------------------------|
A|---------------------------------------------------------------------------|
E|---------------------------------------------------------------------------|

e|------------------------6---9-8-6----8--8-8-8--8--6-8-9---------------------|
B|-9h11-9h11-9h11-6-7-8-9---9------7~----------------------9-6----------------|
G|-------------------------------------------------------------6~-------------|
D|----------------------------------------------------------------------------|
A|----------------------------------------------------------------------------|
E|----------------------------------------------------------------------------|

e|-/13-13-13-13--13-11--10--11--11-11-11-11----------------------------------|
B|-------------------------------------------------11-13-14------------------|
G|----------------------------------------------13---------------------------|
D|---------------------------------------------------------------------------|
A|---------------------------------------------------------------------------|
E|---------------------------------------------------------------------------|

e|/14--14-14-14--14--11---8-9--9-9-9--9-------------/16--16-16-16--16-14-13--|
B|----------------------------------------11-13-14---------------------------|
G|--------------------------------------13-----------------------------------|
D|---------------------------------------------------------------------------|
A|---------------------------------------------------------------------------|
E|---------------------------------------------------------------------------|

e|-16--16-16-16--16~-----------14---------------------------------------------|
B|----------------------13--16---16--13--14-14-14-14--14~---------------------|
G|--------------------13------------------------------------------------------|
D|----------------------------------------------------------------------------|
A|----------------------------------------------------------------------------|
E|----------------------------------------------------------------------------|

Rhythm Guitar Part

it seems he just alternates between two major chords here, C# and G#. the
song starts with the C# chord:

e|---4-4---4-4---4-4---4-4-----|
B|---6-6---6-6---6-6---6-6-----|
G|---6-6---6-6---6-6---6-6-----|
D|---6-6---6-6---6-6---6-6-----|
A|-4-----------4---------------|
E|-------4-----------4---------|

before moving into this pattern between both chords:

e|---4-4---4-4---4-4---4-4---4-4---------4-4---4-4----|
B|---6-6---6-6---4-4---4-4---4-4---------6-6---6-6----|
G|---6-6---6-6---5-5---5-5---5-5---------6-6---6-6----|
D|---6-6---6-6---6-6---6-6---6-6---------6-6---6-6----|
A|-4-----------6-----------6-----------4--------------|
E|-------4-----------4-----------4-6-8-------4--------|

there it is, the spanish waltz from castle crashers. hope you enjoy it.
please rate and send feedback, as this is my first tab. its greatly
appericated

************************************

| /   slide up
| \   slide down
| h   hammer-on
| p   pull-off
| ~   vibrato
| +   harmonic
| x   Mute note
| b   Bend
| pb  Pre-bend
| br  Bend release
| pbr Pre-bend release
| brb Bend release bend

************************************
Tap to rate this tab
 
# A B C D E F G H I J K L M N O P Q R S T U V W X Y Z