Misc Computer Games - Super Smash Bros Melee - Hyrule Temple tab

Super Smash Bros. Melee- Hyrule Temple

Standard Tuning

this is the music you here when playing in the stage Hyrule Temple. And this song is
pretty fast (especially the intro which is also the rhythm guitar part) but it's pretty fun
play. i noticed that no posted the entire song, so i'll do my best. it might be like 95% 
(or maybe more)...but it's REALLY close to the music. if you need help, listen
the song for the speed and what not. Please rate this tab, and comment. thanks! Anyway, 
hope you all like this song! Enjoy! rock on!! B)

Intro:
e|-------------------------------------------------------------------|x4
B|o-3-----3-----3---4-----4-----4---5-----5-----5---4-----4-----4---o|
G|----3-----3-----3---3-----3-----3---3-----3-----3---3-----3-----3--|
D|------5-----5---------5-----5---------5-----5---------5-----5------|
A|o-----------------------------------------------------------------o|
E|-------------------------------------------------------------------|

Chorus:
e|--------------------------|x2
B|o------------------------o|
G|----------5-7~--7-6~9-8-7~|
D|--5~5-7-8-----5~----------|
A|o------------------------o|
E|--------------------------|

Pre-Chorus:
e|------------------|------------------|------------------|---------------|
B|-33-3-3-1---------|-33-3-3-5---------|-33-3-3-1---------|-33-3-3-6~5~4~-|
G|-33-3-3-1---------|-33-3-3-5---------|-33-3-3-1---------|-33-3-3-6~5~4~-|
D|-55-5-5-3---------|-55-5-5-7---------|-55-5-5-3---------|-55-5-5-8~7~6~-|
A|--------------0-4-|--------------0-4-|--------------0-4-|---------------|
E|----------0-2-----|----------0-2-----|----------0-2-----|---------------|

(Chorus)

Bridge 1:
e|-------------------------------------------------------------------------|
B|------------------------6-5-3-6~5-3~-------------------------------------|
G|9-8-6-9~8-6~6-5-3-6~5-3~------------8-7-5-7~8-10~7-6-4-7~6-4~5-4-2-5~4-2~|
D|-------------------------------------------------------------------------|
A|-------------------------------------------------------------------------|
E|-------------------------------------------------------------------------|

Bridge 2:
e|------------3-5~|
B|-33-5~-33-5-----|
G|-33-5~-33-5-----|
D|-55-7~-55-7-----|
A|----------------|
E|----------------|

Solo: [Still working on it. Instead just play the (Intro) until Solo ends]

(Pre-Chorus)

(Chorus)

(Bridge 1)

(Bridge 2)

(Pre-Chorus)

(Chorus)

And that's it. Sorry, but it's too much to type, but i'm in a hurry everytime i post
Sorry though, but i hope you enjoy it!
Tap to rate this tab
 
# A B C D E F G H I J K L M N O P Q R S T U V W X Y Z