Song name
# A B C D E F G H I J K L M N O P Q R S T U V W X Y Z

Misc Computer Games - Metroid - Brinstar tab

This is probably one of my favorite video game songs of all time. Metroid is a classic, 
so is the theme from the Brinstar stage, so I decided to tab it out for you guys. If you 
any mistakes or think it could be changed a little, please comment on my page. Thanks!

KEY:
~=sustain
v=vibrato
h=hammer on
p=pull off
/=slide up
\=slide down
I think that's all that you'll need to play the theme.


E:-----------------------------------|------------------------------|
B:-----------------------------------|------------------------------|
G:-------------------------7------12v|12p10h12/15v~~14h15p14\12-----|
D:---5---5p3h5/8~~7h8p7\5----8v~~----|--------------------------12~~|
A:-----------------------------------|------------------------------|
E:-----------------------------------|------------------------------|

e:-------------------------------------------------------|
B:-------------------------------------------------------|
G:-------------------------------------------------------|
D:--10~~-7-8~~7h8----10~~-7-8~~7h8----10~~-7-8~~7h8p7-5~~|
A:----------------8----------------8---------------------|
E:-------------------------------------------------------|

e:-----------------------------------------------------------------|
B:-----------------------------------------------------------------|
G:----------------------------------7~~--5-4-5~~-8p7p5h7---7h9h11~~|
D:--7--7p5h7-8-------7--7p5h7-8---8----------------------8---------|
A:-------------8~~-8------------8----------------------------------|
E:-----------------------------------------------------------------|

Well, that's pretty much it. If you want to, I suggest adding your own riffs or solos to 
what sounds good layered around this melody.
Thanks for reading!
Tap to rate this tab
 
# A B C D E F G H I J K L M N O P Q R S T U V W X Y Z