Misc Computer Games - Sims 3 - A Love Since Forgotten tab

Okay so I heard this song on the game and thought it was beautiful...I picked up the 
for the first time and worked out the tabs for it.
I've put in all the "background fills" too...it's quite a hard song to play with all 
in.

If you have any queries: australiarocks@hotmail.co.uk

------------------------------------------------------------------|
------------------------------------------------------------------|
------------------------------------------------------------------|
------------------------------------------------------------------|
--1--------1--4--3--4--4----1--------1--4--3--4--4----------------|
-----1--4----------------------1--4-------------------------------|


------------------------------------------------------------------|
------------------------------------------------------------------|
------------------------------------------------------------------|
------------------------------------------------------------------|
-----1-----------4--6--4--3--4-----4----------------4--6--4--3--4-|
--2-----1--4--4------------------4----2-------4--6----------------|


------------------------------------------------------------------|
------------------------------------------------------------------|
------------------------------------------------------------------|
-----------------4-----------------------4------------------------|
--6--------6--4-----6--------6-----6--4-----6---------------------|
-----6--4--------------4--6---------------------------------------|


------------------------------------------------------------------|
------------------------------------------------------------------|
------------------------------------------------------------------|
------------------------------------------------------------------|
-----4--3-----4--4--4--4-----4--3----4--4--4--4----4--3--3---4----|
--2--------4--------------2--------4-------------1----------------|

------------------------------------------------------------------|
------------------------------------------------------------------|
------------------------------------------------------------------|
3----1----1--3----3--1-----1--3----3--1----1--3----1--3-----------|
--------4-------4-------4--------4-------4-------4----------------|
Tap to rate this tab
 
# A B C D E F G H I J K L M N O P Q R S T U V W X Y Z