Song name
# A B C D E F G H I J K L M N O P Q R S T U V W X Y Z

Misc Computer Games - Pokemon - Champion Battle Gold Silver Crystal tab

This is the theme for the championship battle with Lance and Red in Pokemon 
Easy song just listen to the speed of it on YouTube or something and you should be 
good. Works best listening to the newer Heart Gold/Soul Silver versions. Enjoy!


  Intro
E|------------------------|------------------------------------|
B|------------------------|------------------------------------|
G|------------------------|--------------------------------15--|
D|--13---13---13---13-12--|--13-13---13-13---13-13---13-13-----|
A|------------------------|------------------------------------|
E|------------------------|------------------------------------|


|------------------------------------|------------------------------------|
|------------------------------------|--------------------------------14--|
|--------------------------------16--|------------------------------------|
|--13-13---13-13---13-13---13-13-----|--13-13---13-13---13-13---13-13-----|
|------------------------------------|------------------------------------|
|------------------------------------|------------------------------------|


|------------------------------------------|
|------------------------------------------|
|--------15--------16--------15------------|
|--13-13-----13-13-----13-13-----13-13-12--|
|------------------------------------------|
|------------------------------------------|


|------------------------------------------|
|------------------------------------------|
|--------15--------16--------15------------|
|--13-13-----13-13-----13-13-----13-13-15--|
|------------------------------------------|
|------------------------------------------|


|------------------------------------------|
|------------------------------------------|
|--------15--------16--------15------------|
|--13-13-----13-13-----13-13-----13-13-12--|
|------------------------------------------|
|------------------------------------------|


|------------------------------------------|---------------------|
|----------------------------14--------15--|--16---------17------|
|--------15--------16----------------------|---------------------|
|--13-13-----13-13-----13-13-----13-13-----|-------13------------|
|------------------------------------------|---------------------|
|------------------------------------------|---------------------|

 Main
|----------------------------------|--------------------------------|
|--16--------16-15-----------------|-------17-------------------14--|
|-------15---------18--17--16--15--|--16--------------16------------|
|----------------------------------|------------13-13-----16-16-----|
|----------------------------------|--------------------------------|
|----------------------------------|--------------------------------|


|-------------------------------------|-----------------19--|
|--16--------16-15--------------------|--17---21---17-------|
|-------15---------18--17--16--15-16--|---------------------|
|-------------------------------------|---------------------|
|-------------------------------------|---------------------|
|-------------------------------------|---------------------|


|--------------------------------|------------------------------------|
|--16-16--16--16--16--16--16-17--|--16-16--16--16--16--16--16-19--19--|
|--------------------------------|------------------------------------|
|--------------------------------|------------------------------------|
|--------------------------------|------------------------------------|
|--------------------------------|------------------------------------|


|---------------------|------------------------|
|--16--------14-------|------------------------|
|---------------------|------------------------|
|-------13--------11--|--13--------15------16--|
|---------------------|------------------------|
|---------------------|------------------------|


|---------------------------------------|X2
|--16--15----------16-15----------------|
|----------18--17--------18-17--16--16--|
|---------------------------------------|
|---------------------------------------|
|---------------------------------------|


|------------------------|------------------------------------------|
|------------------------|------------------------------------------|
|--------16----15----13--|--------15--------16--------15------------|
|--13--------------------|--13-13-----13-13-----13-13-----13-13-15--|
|------------------------|------------------------------------------|
|------------------------|------------------------------------------|


|------------------------------------------|------------------------|
|----------------------------14--------15--|--16----17----19----17--|
|--------15--------16----------------------|------------------------|
|--13-13-----13-13-----13-13-----13-13-----|------------------------|
|------------------------------------------|------------------------|
|------------------------------------------|------------------------|


|-------------------------|
|--16-----17----19----21--|
|-------------------------|
|-------------------------|
|-------------------------|
|-------------------------|

After that just repeat the main part as many times as you like.
Tap to rate this tab
 
# A B C D E F G H I J K L M N O P Q R S T U V W X Y Z