Song name
# A B C D E F G H I J K L M N O P Q R S T U V W X Y Z

Misc Computer Games - Final Fantasy - Prelude tab

This tab is based on mockingbirdravelle' video found here: 
http://www.youtube.com/watch?v=7jY4ImqIe1E

Credit goes to him for figuring this out!

e|-------------------------------------------------------------15--|
B|-------------------------------------------------13--15--17------|
G|-----------------------------12--------------12------------------|
D|-----------------10--12--14------10--12--14----------------------|
A|-------------10--------------------------------------------------|
E|--8--10--12------------------------------------------------------|

e|--20--15----------------------------------------------------------|
B|----------17--15--13--------------13------------------------------|
G|----------------------12--------------12--------------------------|
D|--------------------------14--12----------14--12--10--------------|
A|------------------------------------------------------10----------|
E|----------------------------------------------------------12--10--|

e|----------------------------------------------------12--|
B|----------------------------------------10--12--13------|
G|------------------------9------------9------------------|
D|--------------7--9--10-----7--9--10---------------------|
A|-----------7--------------------------------------------|
E|--5--7--8-----------------------------------------------|

e|--17--12--------------------------------------------------|
B|----------13--12--10------------10------------------------|
G|----------------------9-------------9---------------------|
D|-------------------------10--9---------10--9--7-----------|
A|-------------------------------------------------7--------|
E|----------------------------------------------------8--7--|

e|-------------------------------------------------------------15--|
B|-------------------------------------------------13--15--17------|
G|-----------------------------12--------------12------------------|
D|-----------------10--12--14------10--12--14----------------------|
A|-------------10--------------------------------------------------|
E|--8--10--12------------------------------------------------------|

e|--20--15----------------------------------------------------------|
B|----------17--15--13--------------13------------------------------|
G|----------------------12--------------12--------------------------|
D|--------------------------14--12----------14--12--10--------------|
A|------------------------------------------------------10----------|
E|----------------------------------------------------------12--10--|

e|----------------------------------------------------12--|
B|----------------------------------------10--12--13------|
G|------------------------9------------9------------------|
D|--------------7--9--10-----7--9--10---------------------|
A|-----------7--------------------------------------------|
E|--5--7--8-----------------------------------------------|

e|--17--12--------------------------------------------------|
B|----------13--12--10------------10------------------------|
G|----------------------9-------------9---------------------|
D|-------------------------10--9---------10--9--7-----------|
A|-------------------------------------------------7--------|
E|----------------------------------------------------8--7--|


e|-------------------------------------------------------13--15--|
B|---------------------------------------------------13-----------|
G|-----------------------10--12----------10--12--14---------------|
D|-------------------10--------------10---------------------------|
A|--------8--10--12--------------12-------------------------------|
E|--5--8----------------------------------------------------------|

e|--17--15--13----------------------------------------------------|
B|--------------13------------------------------------------------|
G|------------------14--12--10------14--12--10--------------------|
D|------------------------------10--------------10----------------|
A|--------------------------------------------------12--10--8-----|
E|-------------------------------------------------------------8--|

e|---------------------------------------------------------15--17--|
B|-----------------------------------------------------15----------|
G|-------------------------12--14----------12--14--16--------------|
D|---------------------12--------------12--------------------------|
A|---------10--12--14--------------14------------------------------|
E|--7--10----------------------------------------------------------|

e|--19--17--15------------------------------------------------------|
B|--------------15--------------------------------------------------|
G|------------------16--14--12------16--14--12----------------------|
D|------------------------------12--------------12------------------|
A|--------------------------------------------------14--12--10------|
E|--------------------------------------------------------------10--|

e|---------------------------------------------11--15--|
B|-----------------------8-----------8--9--13----------|
G|-----------------5--8--------5--8--------------------|
D|-----------5--6-----------6--------------------------|
A|-----3--6--------------------------------------------|
E|--4--------------------------------------------------|

e|--16--15--11------------------------------------------|
B|--------------13--9--8--------9--8--------------------|
G|------------------------8--5--------8--5--------------|
D|------------------------------------------6--5--------|
A|------------------------------------------------6--3--|
E|------------------------------------------------------|

e|--------------------------------------------------13--17--|
B|------------------------10------------10--11--15----------|
G|-----------------7--10---------7--10----------------------|
D|-----------7--8-------------8-----------------------------|
A|-----5--8-------------------------------------------------|
E|--6-------------------------------------------------------|

e|--18--17--13------------------------------------------------|
B|--------------15--11--10---------11--10---------------------|
G|--------------------------10--7----------10--7--------------|
D|------------------------------------------------8--7--------|
A|------------------------------------------------------8--5--|
E|------------------------------------------------------------|
Tap to rate this tab
 
# A B C D E F G H I J K L M N O P Q R S T U V W X Y Z