Misc Computer Games - Morrowind Theme tab

e:-----------------6--------------------------------------------|
b:------------6-8---8-6-8-6-------------------------------------|
g:-5-7-8--8----------------------8-7-5--------------------------|
d:--------------------------------------------------------------|
a:--------------------------------------------------------------|
e:--------------------------------------------------------------|


e:-------------------6-8-6-10-8-8-10-11-10-8-6------------------|
b:------------6-8-8--------------------------------9-8-6---8-6--|
g:-5-7-8--8-----------------------------------------------8-----|
d:--------------------------------------------------------------|
a:--------------------------------------------------------------|
e:--------------------------------------------------------------|

e:-------------------|
b:-8-6---------------|
g:------8-7-5--------|
d:-------------------|
a:-------------------|
e:-------------------|
Tap to rate this tab
 
# A B C D E F G H I J K L M N O P Q R S T U V W X Y Z