Song name
# A B C D E F G H I J K L M N O P Q R S T U V W X Y Z

Misc Computer Games - Red Dead Redemption - Already Dead tab

Bill Elm & Woody Jackson
Already Dead
album: Red Dead Redemption (Original Soundtrack)
tabbed by ambient203

Tuning: Standard


This song is from the amazing game Red Dead Redemption. It basically
revolves around the Dsus4 and G chord figures. In the "bridge" it
alternates between C and G essentially, ending in D. I think this is
played on a banjo and if you don't have one (like I don't), this song
may not sound just like the track. It'll still sounds pretty good though.
Makes me want to pick up a harmonica :)

Also, the starred (*) notes are especially devoiced notes, not harmonics.
Much of the song is devoiced, but those in particular are played gently.

Enjoy!


0:00-0:10
Guitar 1
e|--------------------------------------------------|
B|---------------------------------------0-----0----|
G|--7-----7-------5-4--0-----0-4-0-2-------0--------|
D|----5-----5---7--------2-----------0-------0------|
A|--5---5-5---5------------2---2---0---0------------|
E|---------------------3-----3-----------3----------|
                                                    |
Harmonica                                           |
e|--------------------------------------------------|
B|--------------------------------------------------|
G|--7-----4-------5/4----------4-------4-4----------|
D|--------------7------5-----5---5/7----------------|
A|--------------------------------------------------|
E|--------------------------------------------------|

0:11-0:20
Guitar 1
e|--------------------------------------------------|
B|--------------------------------------------------|
G|--7-----7-------5-4--0-----0-4-0-2-----0----------|
D|----5-----5---7--------2-----------0-----0--------|
A|--5---5-5---5------------2---2---0---0-----2------|
E|---------------------3-----3-----------3----------|
                                                    |
Harmonica                                           |
e|--------------------------------------------------|
B|--------------------------------------------------|
G|--7-----4-------5/4----------4--------------------|
D|--------------7------5-----5---5/7-----5----------|
A|--------------------------------------------------|
E|--------------------------------------------------|

0:21-0:31
Guitar 1
e|---------------------------------------------3*---|
B|---------------------------------------0-----0----|
G|--7-----7-------5-4--0-----0-4-0-2-------0--------|
D|----5-----5---7--------2-----------0-------0------|
A|--5---5-5---5------------2---2---0---0------------|
E|---------------------3-----3-----------3----------|
                                                    |
Harmonica                                           |
e|--------------------------------------------------|
B|--------------------------------------------------|
G|--7-----4-------5/4----------4-------4-4----------|
D|--------------7------5-----5---5/7----------------|
A|--------------------------------------------------|
E|--------------------------------------------------|

0:32-0:41
Guitar 1
e|---------------------------------------3*----3*---|
B|------------------------------------------3*------|
G|--7-----7-------5-4--0-----0-4-0-2----------------|
D|----5-----5---7--------2-----------0--------------|
A|--5---5-5---5------------2---2---0---0------------|
E|---------------------3-----3-----------3----------|
                                                    |
Harmonica                                           |
e|--------------------------------------------------|
B|--------------------------------------------------|
G|--7-----4-------5/4----------4--------------------|
D|--------------7------5-----5---5/7---7/5----------|
A|--------------------------------------------------|
E|--------------------------------------------------|

0:42-0:51
Guitar 1
e|--------------------------------------------------|
B|--------------------------------------------------|
G|--0-----0-----0-----0----0-----0-----0-----0------|
D|----2-----2-----0----------2-----2-----0----------|
A|--3---3-3---3-----2------3---3-3---3-----2--------|
E|--------------3----------------------3------------|
                                                    |
Harmonica                                           |
e|-----------3--5--7---7p5--------------------------|
B|-----3--5----------------8-----5-8p5-3------------|
G|--5-----------------------------------------------|
D|--------------------------------------------------|
A|--------------------------------------------------|
E|--------------------------------------------------|

0:52-1:02
Guitar 1
e|-------------------------------2------------------|
B|-------------------------3---------3--------------|
G|--0-----0-----0-----0------2----------------------|
D|----2-----2-----0--------0---0--------------------|
A|--3---3-3---3-----2-------------------------------|
E|--------------3-----------------------------------|
                                                    |
Harmonica                                           |
e|-----------3--5--7-------5------------------------|
B|-----3--5-------------------7----5/3--------------|
G|--5-----------------------------------------4--5--|
D|--------------------------------------------------|
A|--------------------------------------------------|
E|--------------------------------------------------|

1:03-1:12
Guitar 1
e|--------------------------------------------------|
B|---------------------0-----------------0----------|
G|--7-----7-------5-4----0---0-------2--------------|
D|----5---------7----------2---0--------------------|
A|--5---5-5----------------------2---0--------------|
E|---------------------3-----------------3----------|
                                                    |
Harmonica                                           |
e|--------------------------------------------------|
B|--------------------------------------------------|
G|--7-----4-------5-4--------------------4----------|
D|--------------7------5-----5-------7--------------|
A|--------------------------------------------------|
E|--------------------------------------------------|

1:13-1:31
Guitar 1               * Slow tempo here
e|--------------------------------------------3-----|
B|--------------------------------------------3-----|
G|--7-----7-------5----0-----0--4--0-2--------0-----|
D|----5-----5---7--------2--------------0-----0-----|
A|--5---5-5---5------------2----2----0-----0--2-----|
E|---------------------3-----3----------------3-----|
                                                    |
Harmonica                                           |
e|--------------------------------------------------|
B|--------------------------------------------------|
G|--7-----4-------5/4-----------4-------------------|
D|--------------7------5-----5-----5/7--------5-----|
A|--------------------------------------------------|
E|--------------------------------------------------|


Tap to rate this tab
 
# A B C D E F G H I J K L M N O P Q R S T U V W X Y Z