Song name
# A B C D E F G H I J K L M N O P Q R S T U V W X Y Z

Misc Computer Games - Metro 2033 Theme tab

Metro 2033 Theme
tabbed by ibanezrxseries this is the first tab I have ever done

Guitar 1= High notes on 1e,2b,3g strings
Guitar 2= Low notes on 4d,5a,6e strings

Can be played on 1 but very hard.



Guitar 1.
E-----------------|-----------------|-----------------|---------------------|
B-----1-3-----3---|-----0-1---------|-----1-3-----3---|---------------------|
G---------------2-|-------------4-2-|---------------2-|-4--0--2--4h5p4-2----|
D-----------------|-----------------|-----------------|---------------------|
A-----------------|-----------------|-----------------|---------------------|
E-----------------|-----------------|-----------------|---------------------|

Guitar 2.
E-----------------|-----------------|-----------------|---------------------|
B-----------------|-----------------|-----------------|---------------------|
G-----------------|-----------------|-----------------|---------------------|
D---2-2-3---3-----|---3-0-2---2-----|---2-2-3---3-----|---------------------|
A-0-------0-------|-0-------0-------|-0-------0-------|-------0-------------|
E-----------------|-----------------|-----------------|-3--0----------------|

Guitar 1.
E-----------------|-----------------|-----------------|---------------------|
B-----1-3-----3---|-----------------|-----1-3-----3---|---------------------|
G---------------2-|-----4-5-----4-2-|---------------2-|-4--0--2--4h5p4-2----|
D-----------------|-----------------|-----------------|---------------------|
A-----------------|-----------------|-----------------|---------------------|
E-----------------|-----------------|-----------------|---------------------|

Guitar 2.
E-----------------|-----------------|-----------------|---------------------|
B-----------------|-----------------|-----------------|---------------------|
G-----------------|-----------------|-----------------|---------------------|
D---2-2-3---3-----|---0-0-2---2-----|---2-2-3---0-----|---------------------|
A-0-------0-------|---------0-------|-0-------2-------|-------0-------------|
E-----------------|-3---------------|-----------------|-3--0----------------|

Guitar 1.
E-----0-1-----0---|-------------0---|-----------------|---------------------|
B---------------5-|-----3-5-------3-|-----1-3-----3---|-------1--0----------|
G-----------------|---2-------2-----|---2-----------2-|-4--0----------------|
D-----------------|-----------------|-----------------|---------------------|
A-----------------|-----------------|-----------------|---------------------|
E-----------------|-----------------|-----------------|---------------------|

Guitar 2.
E-----------------|-----------------|-----------------|---------------------|
B-----------------|-----------------|-----------------|---------------------|
G---2-0-2---2-----|-----------------|-----------------|---------------------|
D-----------------|-----3-5---------|-----2-3---3-----|---------------------|
A-0-------0-------|-0-------0-------|-0-------0-------|---------------------|
E-----------------|-----------------|-----------------|-3--0--1--3----------|

Guitar 1.
E-----0-1-----0---|-------------0---|-----------------|---------------------|
B---------------5-|-----3-5-------3-|-----1-3-----3---|---------------------|
G-----------------|---2-------2-----|---2-----------2-|-4--0--2--4h5p4-2----|
D-----------------|-----------------|-----------------|---------------------|
A-----------------|-----------------|-----------------|---------------------|
E-----------------|-----------------|-----------------|---------------------|

Guitar 2.
E-----------------|-----------------|-----------------|---------------------|
B-----------------|-----------------|-----------------|---------------------|
G---2-0-2---2-----|-----------------|-----------------|---------------------|
D-----------------|-----3-5---------|-----2-3---3-----|---------------------|
A-0-------0-------|-0-------0-------|-0-------0-------|-------0-------------|
E-----------------|-----------------|-----------------|-3--0----------------|
Tap to rate this tab
 
# A B C D E F G H I J K L M N O P Q R S T U V W X Y Z