Song name
# A B C D E F G H I J K L M N O P Q R S T U V W X Y Z

Misc Computer Games - Call Of Duty World At War - Usa Victory Theme tab

Call Of Duty: World At War - U.S.A Victory Theme

Tabbed By: FRr3AkOnALEaSh (smokin_05@hotmail.com)
Tuning: 6 String Tuned to Standard (E A D G B E)

Riff 1
E|---------------------------------|
B|--8-8----9-----------------------|
G|------10----8-8-8-8-8-8-8-8-8-8--|
D|---------------------------------|
A|---------------------------------|
E|---------------------------------|

Riff 2
E|----8---------------6-----------------------|
B|--9---9--8-8----9-8----8-8-8-8-8-8-8-8-8-8--|
G|-------------10-----------------------------|
D|--------------------------------------------|
A|--------------------------------------------|
E|--------------------------------------------|

Riff 3
E|--8---10-11-13-15--|
B|----8--------------|
G|-------------------|
D|-------------------|
A|-------------------|
E|-------------------|
Tap to rate this tab
 
# A B C D E F G H I J K L M N O P Q R S T U V W X Y Z