Misc Computer Games - Call Of Duty World At War - Wild Card tab

Call Of Duty: World At War - Wild Card

Tabbed By: FRr3AkOnALEaSh (smokin_05@hotmail.com)
Tuning: 8 String Tuned 1 Whole Step Down (E A D G C F a d)

D|-------------------|-------------------------|
A|-------------------|-------------------------|
F|-------------------|-------------------------|
C|-------------------|-------------------------|
G|-------------------|-------------------------|
D|-------------------|-------------------------|
A|-------------------|-------------------------|
E|--3-3-4-4-2-2-3-3--|--4-2-2-3-3-4-4-2-2-3-3--|
    . . . . . . . .     . . . . . . . . . . .   PM

D|---------------------------------------------------------|
A|---------------------------------------------------------|
F|---------------------------------------------------------|
C|---------------------------------------------------------|
G|---------------------------------------------------------|
D|----------------------------------6--------------6-------|
A|----------4--------------4-------------------------------|
E|--2-3---3---3---2~-3---3---3---33---4---2~-3---3---3-4~--|
          .              .       ..                         PM
Tap to rate this tab
 
# A B C D E F G H I J K L M N O P Q R S T U V W X Y Z