Song name
# A B C D E F G H I J K L M N O P Q R S T U V W X Y Z

Misc Computer Games - Fallout 3 - Point Lookout Theme tab

-----------------------------------------------------------------------------
			    Point Lookout Theme - Fallout 3
-----------------------------------------------------------------------------
Tabbed by: Zach (Me)
Email: ps3zoso@yahoo.com (i never check it)

Tuning: (High to Low) e B G D Ab C# (dont mind the actual tabs saying standard I'm too 
to change it)

Play with brass slide or spoon. Listen to song for timing.

e|-----------7/9----9----9------9--------------------------------------------|
B|-----------7/9------9-----9------9\7----------7--------7-7-----------------|
G|-------------------------------------------------5/6-----------------------|
D|---------------------------------------------------------------------------|
A|---------------------------------------------------------------------------|
E|---------------------------------------------------------------------------|

e|---------------------------------------------------------------------------|
B|---------------------------------------------------------------------------|
G|---6-3/6-6-6---------------------------------------------------------------|
D|------------------5\3-------------4---4------------------------------------|
A|------------------------5\2--5--5---5---5----------------------------------|
E|---------------------------------------------0-----------------------------|

************************************

| /   slide up
| \   slide down

questions? comments? death threats? Email: ps3zoso@yahoo.com (i never check it)
Tap to rate this tab
 
# A B C D E F G H I J K L M N O P Q R S T U V W X Y Z