Misc Computer Games - Final Fantasy 4 - Battle Theme tab

Final Fantasy IV - Battle Theme
Nobuo Uematsu
Tabbed by: Iron-Jaden

Tuning: Standard

Intro
e|-------------13-12-10------------------10---------|
B|--10----13------------13-12131012---13------12----|
G|-----------------------------------------------12-|
D|--------------------------------------------------|
A|--------------------------------------------------|
E|--------------------------------------------------|

-----12--15-14-----12-------------------|
---13--16-------16-----12-13------------|
-14---------------------------12-13-----|
------------------------------------12--|
----------------------------------------|
----------------------------------------|

-------------13-12-10------------------10---(10)--|
--10----13------------13-12131012---13------------|
--------------------------------------------------|
--------------------------------------------------|
--------------------------------------------------|
--------------------------------------------------|

Main Part
e|--12-13-15-----13-12------12-13-15-13-12-----12----------------------12-|
B|------------15---------15----------------15------12-15-13---12-13-15----|
G|------------------------------------------------------------------------|
D|------------------------------------------------------------------------|
A|------------------------------------------------------------------------|
E|------------------------------------------------------------------------|

----12-13-15-----13-12------12-13-15-13-12-----12----------------------12-|
-15-----------15---------15----------------15------12-15-13---12-13-15----|
--------------------------------------------------------------------------|
--------------------------------------------------------------------------|
--------------------------------------------------------------------------|
--------------------------------------------------------------------------|

------------------------12-13-15--17--19-21-22-24--|
-15-13-12-----12--13-15----------------------------|
----------14---------------------------------------|
---------------------------------------------------|
---------------------------------------------------|
---------------------------------------------------|

That's it! Have fun with it :)
Tap to rate this tab
 
# A B C D E F G H I J K L M N O P Q R S T U V W X Y Z