Misc Computer Games - Metro 2033 - Guitar Song 2 tab

        Am               Bm
E|-------------------------------|
B|---------1---------------3-----|
G|-----2-------2-------4-------4-|
D|---2---2---2-------4---4---4---|
A|-0---------------2-------------|
E|-------------------------------|
  \2x/

     G    Esus4/G  Am
E|---------------|----------------|
B|-----3---------|-1~~~~~~~~~~----|
G|---0---------0-|-2~~~~~~~~~~----|
D|-------0---2---|-2~~~~~~~~~~----|
A|---------------|-0~~~~~~~~~~----|
E|-3-------0-----|----------------|
  \2x/

         Am              Bm
E|---------0---------------2-----|
B|-----1-------1-------3-------3-|
G|---2---2---2-------4---4---4---|
D|-------------------------------|
A|-0---------------2-------------|
E|-------------------------------|
  \2x/

     G    Esus4/G   Am
E|-----0---------|-0~~~~~~~~~~----|
B|-----3-------0-|-1~~~~~~~~~~----|
G|---0---------0-|-2~~~~~~~~~~----|
D|-------0---2---|-2~~~~~~~~~~----|
A|---------------|-0~~~~~~~~~~----|
E|-3-------0-----|----------------|
  \2x/

         Am               Bm
E|-----0-------0-------2-------2-|
B|-----1-------1-------3-------3-|
G|---2-2-2---2-2-----4-4-4---4-4-|
D|-------------------------------|
A|-0-------0-------2-------2-----|
E|-------------------------------|
  \2x/

     G    Esus4/G   Am
E|-----0---------|----------------|
B|-----3-------0-|-1~~~~~~~~~~----|
G|---0---------0-|-2~~~~~~~~~~----|
D|-------0---2---|-2~~~~~~~~~~----|
A|---------------|-0~~~~~~~~~~----|
E|-3-------0-----|----------------|
  \2x/
Tap to rate this tab
 
# A B C D E F G H I J K L M N O P Q R S T U V W X Y Z