Song name
# A B C D E F G H I J K L M N O P Q R S T U V W X Y Z

Misc Computer Games - Street Fighter Ii - Characters Themes tab

Street Fighter II (Capcom 1991)
Theme music composed by Yko Shimomura and Alph Lyra (Isao Abe et al.)
Arranged by Yoshihiro Sakaguchi and Tetsuya Nishimura.
Further arrangements by Tadashi "Elf" Jougaki and Setsuo "Kashipa" Yamamoto

Transcribed by Richard in 2005 from the sound test of the Sega MegaDrive
version of Champion Edition, with a little help from the members Drag and
Drunken Master from the message board at www.shoryuken.com

These are fragments from all the main character stage riffs...
The melodies are originally on a variety of synthesized instruments,
including sitars, steel drums, trumpets and electric guitars.

Note, when near to KO, all tempos increase by approx 35%.


World Warrior Arcade Introduction
E:-------------------------- --------------?-0-3----|
b:-------------------------- ----------?-3-------3--|
g:-------------------------- ------3----------------|
d:--0-0--0-0-----0-0-------- --6-4---2--------------|
a:-----------3-3------1-3-0- -----------------------|
e:-------------------------- -----------------------|

Character Select
E:------------------------------- -------------------------9-12-10-9-----|
b:------------------------------- ----10-12---10-12---7-10-----------10--|
g:------------------------------- ---------------------------------------|
d:------------------------------- ----4--4----4--4-----------------------|
a:--0--3-5-3-4-5--1-3-4-5-4-3-1-- ---------------------------------------|
e:------------------------------- ---------------------------------------|

Ryu v1 / Japan South
e:----------------------- --------------------------------------------------------|
b:----------------------- --------------------------------------------------------|
g:----------------------- --------------0-------------0------3--2-0-------------2-|
d:---------------3------- ------0-0-2-3---3p2h3-0-2-3---0---/-------3-2-0-0--2-3--|
a:-5-3-3-5-3-3-5---5-3-0- -(0-3)--------------------------3-----------------------|
e:----------------------- --------------------------------------------------------|

Ryu v2
E:--------------------------------------8------------------------------------|
B:-0-3-5--5-7-8-10--8-7-8-5-7--8-10-5------10-8-7-5-7-5-5--5-7-8-10-8-10-10--|
G:------------------------------------7--------------------------------------|
D:---------------------------------------------------------------------------|
A:---------------------------------------------------------------------------|
E:---------------------------------------------------------------------------|

Ryu Piano End Sequence
E:----1--5-3----1-------1-5-7---6-------4-5-----5-7-5-7-9-10-8-5-0-1-5-7-8-|
b:--3-3----5--5-3-----0-3---8-8-6-----7-------6---3-----5--------1-------8-|
g:--4-4----4----4-----2-4---9---6---6-------5-----4-----5----------------9-|
d:---------2----------------------4--------------------------------------9-|
a:----2---------2---2---0-2-7----------------------------------------------|
e:----------------2--------------------------------------------------------|

Edmond Honda / Japan North
E:---------- --------------------------------------------------|
b:---------- --------------------------------------------------|
g:---------- ----0------0-2-2-0--------------------------------|
d:---------- --2---2--2---------2-0-2--0--------0-2h0----------|
a:--0----0-- ----------------------------2-0--3-------3-0----0-|
e:-----3---- ----------------------------------------------3---|
(Super version starts on B then A)

Blanka / Brazil
E:--------------------- --------- ---------------3- -1----- -7-7- -14-12-10-7-
b:--------------------- --------- -------1-3-1-3--- -3-1-1- ----- ------------
g:--------------------- --------- -0-0-0----------- ------- ----- ------------
d:----1------------1--- -----1-3- ----------------- ------- ----- ------------
a:--3---3--3-3-3-3---3- -3-3----- ----------------- ------- ----- ------------
e:--------------------- --------- ----------------- ------- ----- ------------
(Super up a semitone)

Guile / SE USA
E:-----------------------------------------1-1------- ------------3-3---6-4-3-4-|
b:-4--4-3--3-4--3--4--4-3--3-4--3--4-3-4-3-----4-3--- ------3-4-6-----6---------|
g:-------------------------------------------------3- -5--5---------------------|
d:--------------------------------------------------- --------------------------|
a:--------------------------------------------------- --------------------------|
e:--------------------------------------------------- --------------------------|

Ken / NE USA
----------- --------------------------------------------------------------------|
----------- --------------------------------------------------------------------|
-2-0------- ------3-1--0----------------3-1--0--------------3-5-6-5-3---3-5-3---|
-3-1-3-0-2- ---3---------3--1--3-----3---------3--1--3----3-----------6-------6-|
-3-1-4-1-3- -3---------------------3--------------------3-----------------------|
-1---4-1-3- --------------------------------------------------------------------|
Wed Ending by Felix Mendelssohn

Chun-Li / China
E:-----------1----------5-3- ---0--------------------------------0-1-3-0-0---0-(0)-|
B:-3-3-1-1-3---3-3-1-1-3---- -3---3-1----1-------1-3-3p1h3-3p1h3-----------3-------|
G:-------------------------- -2---2--0-2---0-2-2-----------------------------------|
D:-------------------------- -0---0----2-----2-------------------------------------|
A:-------------------------- ------------------------------------------------------|
(Super starts on a B)

Zangief / USSR.
b:----------- ---------------------------------------------- -10-10-11-8-10--15-|
g:----------- ----5----------------------------------------- -------------------|
d:--0-2-3-5-- --7---7-5-7-5--------------------------------- -------------------|
a:----------- ---------------7-0-3-0-?-0---0-1---1-1-3------ -------------------|
e:----------- -----------------------3---3-----3--------0-3- -------------------|
(Super is up 2 frets, giving a nice open E bassline)

Gorbachev End Sequence
E:------------------------------1----0-1----0-1------------3-1---|
b:-4--1-3-4--1-3-4--3-1-1-0-0------3------3-----4-3-3-1-1------4-|
g:---------------------------------------------------------------|
d:---------------------------------------------------------------|
a:---------------------------------------------------------------|
e:---------------------------------------------------------------|

Dhalsim / India
E:------------------------------------------------------0-----0----------|
b:----3-5-3--------------0-2-0-----------0-2-0----0-1-------3---3--3-1---|
g:--2---5----2-2-----0-2---------2-2---2--------2-----2----------------2-|
d:---------------2-4---------------2-3-----------------------------------|
a:-----------------------------------------------------------------------|
e:-----------------------------------------------------------------------|

Super SF2: New Challengers (compose: Hiroaki Kondo, S Duckworth and N Baldwin)
Thunder Hawk / Mexico
E:----12----7-------------------------------------------7---------------------|
b:--6-8--10----6-5-3--5-6-5--2-3-5-5---3-0-1-3--5-6-6---6-6-5-3-5-6-5-2-3-5-5-|
g:----------------------------------------------------------------------------|
d:----------------------------------------------------------------------------|
a:----------------------------------------------------------------------------|
e:----------------------------------------------------------------------------|

Fei-Long / Hong Kong
------------------ --------------------------------------------------- ---------|
---------2~---(5)- -12--12-12--10-7---7--7--3--5--5--5--3--------7-10- 12-10-12-|
----2--4----4--2-- ---------------------------------------4--4-4------ ---------|
-2---------------- --------------------------------------------------- ---------|
------------------ --------------------------------------------------- ---------|
------------------ --------------------------------------------------- ---------|

Dee Jay / Jamaica
-4-3-1-3-1---------------- -5-3-1-3-5-0---3-1-0-3----0-1-5-3-1-1--0-0-3-3-1-0-3-5-|
-----------2-3------------ --------------3----------------------------------------|
----------------2--2--2--- -----------------------2-------------------------------|
-------------003-22-03-00- -------------------------------------------------------|
-------------------------- -------------------------------------------------------|
-------------------------3 -------------------------------------------------------|

Cammy W / England
E:--0----------1---------- --1--------1--2-1----------1-2---6-4-2-1--2-1--2-1---|
b:--0----------3---------- -------2-4---------2--4--4-----2-------------------4-|
g:--0----------2---------- -----3-----------------------------------------------|
d:------2-0-------------(0 -----------------------------------------------------|
a:----2-----0--2----(2-2)- -----------------------------------------------------|
e:--0------------3-0------ -----------------------------------------------------|

Boss
Balrog / W. USA
E:-------------- -----------3-1-0----- ---------------------------|
b:-------------- -----1-3---------1-3- ---------------------------|
g:-------------- ---2----------------- -----------2-0---0---------|
d:-------------- -3------------------- -0-2-3-0-3-----3---3-2-0---|
a:--0-0-0-0-0-0- --------------------- -------------------------3-|
e:-------------- --------------------- ---------------------------|

Vega / Spain
E:------------------------------------- -----------------------|
b:------------------------------------- -----------------------|
g:------------------------------------- -----------------------|
d:------------------------------------- ---6~--5-3-1-----------|
a:-3-333-333-333-4-444-444-44-5-4-3--1- -3~----------4-2-3-4-3-|
e:------------------------------------- -----------------------|

Sagat / Thailand
E:--------------- --------------------------------- ----------------------------|
b:--------------- --------------------------------- ----------------------------|
g:-0-0-0-0-0-3--- -2-2---0------------------------- -0x-2x-3x-5x-6b--3-3-2-3-6--|
d:-------------3- -----3---0-3---0--2-0------------ --------------------------0-|
a:--------------- -------------3--------1-3-------- ----------------------------|
e:--------------- --------------------------1--1-3- ----------------------------|

M. Bison
E:--------- -------------------------------------- -----------|
b:--------- -------------------------------------- -----------|
g:--------- ----------0-------------0-3-2-0-2----- -4-5-5-4-5-|
d:--2~-1~-- --0-2-0-2---4-0-2---0-2-----------0-2- -----------|
a:--------- -------------------------------------- -----------|
e:--------- -------------------------------------- -----------|

Bonus Round (90 BPM)
b:---------------------------------------------------|
g:----4-4---------2-2---------2-2---------4-4--------|
d:----4-4---------2-2---------2-2---------4-4--------|
a:----2-2---------0-0---------0-0---------2-2--------|
e:--0-----6-5-4-0-----6-5-4-0-----6-5-6-0-----4-5-6--|

CE Generic Shadaloo Boss Endings
b:--------- -------------------------------------------------|
g:--------- -------------------------------------------------|
d:--------- --------0-000-1-111-3-333---------3--------------|
a:--3---3-- --3-333---------------------3-5-6---6--??--5-6-3-|
e:----3---- -------------------------------------------------|

Staff Roll Credits
e:-4-3-1----11-9-8-6-8-9-11- -8-8-4-6----16-15-13-15---- -8-9-6-8-------6------|
b:-------4------------------ ---------4--------------13- ---------9--8-9-9-8-4-|
g:-------------------------- --------------------------- ----------------------|
d:-------------------------- --------------------------- ----------------------|
a:-------------------------- --------------------------- ----------------------|
e:-------------------------- --------------------------- ----------------------|
Note: This is from the CPS1, and ST is a semitone lower all the way through.

That's it. Let me know if you disagree with any of this, or if
you have figured out any other songs... (email address changes,
so check
http://thesuper.angelfire.com
for current contact details). See also my youtube channel for video tutorials.
Hope you enjoy the tunes!
Tap to rate this tab
 
# A B C D E F G H I J K L M N O P Q R S T U V W X Y Z