Misc Computer Games - Legend Of Zelda Twilight Princess - Midnas Lament tab

Tabbed by: Gooch-36
E-mail:symbioticlove36@gmail.com

This is my first tab, but im confident it is correct...

Although I couldnt figure out a few small parts,
but what I have tabbed here is the main thing 
you hear in the song.







This is the piano part:


E---------13-12---8-7-------------------|
B---10~----------------10-8-12----------|
G---------------------------------------|
D---------------------------------------|
A---------------------------------------|
E---------------------------------------|

E---------13-12---8-10---12-13-15-------|
B---10~---------------------------------|
G---------------------------------------|
D---------------------------------------|
A---------------------------------------|
E---------------------------------------|

E----17~--------18-17-------------------|
B------------15-------18-20~---18-20-17-|
G---------------------------------------|
D---------------------------------------|
A---------------------------------------|
E---------------------------------------|



And this is when the orchestra comes in:

E---------------------------------------|
B----10h12-15~---17-15-10~--------------|
G---------------------------------------|
D---------------------------------------|
A---------------------------------------|
E---------------------------------------|

E---------------------------------------|
B---------------------------------------|
G----10~---17-16-9~---------------------|
D---------------------------------------|
A---------------------------------------|
E---------------------------------------|
Tap to rate this tab
 
# A B C D E F G H I J K L M N O P Q R S T U V W X Y Z