Misc Computer Games - Tetris Theme tab

Tabbed by: Troy Baker
Wolfrider323@gmail.com


| /  slide up
| \  slide down
| h  hammer-on
| p  pull-off
| ~  vibrato
| +  harmonic
| x  Mute note

_____________________________________________________________________________
                                   Tetris Theme
_____________________________________________________________________________
verse 1
e|-12-------------------------------12---------------------12----------|
B|-----12-13-15----13-12---------13----15-13-12---12-13-15---13--------|
G|------------------------14--14--------------------------------14--14-|
D|---------------------------------------------------------------------|
A|---------------------------------------------------------------------|
E|---------------------------------------------------------------------|

verse 1 con.
e|----------17-15-13-12----12----------------------12------------------|
B|-15----18-------------13-----15-13-12---12-13-15----13---------------|
G|--------------------------------------------------------14---14------|
D|---------------------------------------------------------------------|
A|---------------------------------------------------------------------|
E|---------------------------------------------------------------------|(x2)

play the first verse twice, then move on to the 2nd verse. take this slower

verse 3
e|--12-----------------------------------------------------------------|
B|-------12----15---------13---------12--------------------------------|
G|------------------16-------14---13-----------------------------------|
D|---------------------------------------------------------------------|
A|---------------------------------------------------------------------|
E|---------------------------------------------------------------------|

e|--12-----------------------12--17-16---------------------------------|
B|-------12----15---------13-------------------------------------------|
G|------------------16-------------------------------------------------|
D|---------------------------------------------------------------------|
A|---------------------------------------------------------------------|
E|---------------------------------------------------------------------|

the song is technically repeated twice, then the first verse once more but you can play 
however many times you want
Tap to rate this tab
 
# A B C D E F G H I J K L M N O P Q R S T U V W X Y Z