Song name
# A B C D E F G H I J K L M N O P Q R S T U V W X Y Z

Misc Computer Games - Super Mario Land 2 - Save Select Screen tab

Super Mario Land 2 - 6 Golden Coins

Save Select Theme

Standard Tuning

|-----7----10----9----8---------------|----------5--5----8----7-----------|
|-8------------------------10--7------|--------------------------8--------|
|-------------------------------------|-7--6--7---------------------9--7--|
|-------------------------------------|-----------------------------------|
|-------------------------------------|-----------------------------------|
|-------------------------------------|-----------------------------------|

 
|-----------------------------------0---------0--|--2----------------------0---------------|
|--------------------------0-----0---------4-----|-------2--3------2--3---------0--1-------|
|-------------------2---------3------------------|--------------------------------------2--|
|-----------5----5-------------------------------|-----------------------------------------|
|--7--6--7---------------------------------------|-----------------------------------------|
|------------------------------------------------|-----------------------------------------|

Repeat infinitely.
Tap to rate this tab
 
# A B C D E F G H I J K L M N O P Q R S T U V W X Y Z