Misc Computer Games - Silent Hill - Promise tab

E|-----------------------------------------------|
B|-----1----------1----------1----------0--------|
G|-----------------------------------------------|
D|---2---2------3---3------2---2------5---5------|
A|-0----------0----------3----------5------------|
E|-----------------------------------------------|

E|----12--15--------12--8---|
B|-10--------13--10-------8-|
G|--------------------------|
D|--------------------------|
A|--------------------------|
E|--------------------------|

E|-----------------------------------8-8-7-----------|
B|-8-8-8-6-5--3-3/5-3-1--8-8-8/10-8--------8---------|
G|---------------------------------------------------|
D|---------------------------------------------------|
A|---------------------------------------------------|
E|---------------------------------------------------|

E|----------------------------------8-8-7-8-7----7-8-10--|
B|-8-8-8-6-5--3-3/5-3-1--8-8-8/10-8-----------10---------|
G|-------------------------------------------------------|
D|-------------------------------------------------------|
A|-------------------------------------------------------|
E|-------------------------------------------------------|

E|-8-7-8-7----7-8----7-8-10-8-10-12-8-7----7-8-10--------|
B|---------10-----10--------------------10---------------|
G|-------------------------------------------------------|
D|-------------------------------------------------------|
A|-------------------------------------------------------|
E|-------------------------------------------------------|

E|-8-7-8-7----7-8----8-7-10-8-10-12-8---|
B|---------10-----10--------------------|
G|--------------------------------------|
D|--------------------------------------|
A|--------------------------------------|
E|--------------------------------------|

(repete tudo)

(riff)
      Em    Em    Em    Em    Em    Em    C
E|---0-----0-----0-----0-----0-----0---1--3---|
B|---0-----0-----0-----0-----0-----0---0--5---|     (4x)
G|---0-----0-----0-----0-----0-----0------5---|
D|---2-----2-----2-----2-----2-----2------5---|
A|---2-----2-----2-----2-----2-----2------3---|
E|---0-----0-----0-----0-----0-----0------3---|

(viol„o 2 - riff)
E|---3-0---|
B|-0-------|
G|---------|
D|---------|
A|---------|
E|---------|

E|---0-2-3---0-2-3---0-2-3---0-2-3-2---------|
B|-0-------0-------0-------0-----------------|    (2x)
G|-------------------------------------------|
D|-------------------------------------------|
A|-------------------------------------------|
E|-------------------------------------------|

E|------5-7-----5-7-----5-7-----5-7-5--------|
B|--7-8-----7-8-----7-8-----7-8--------------|    (2x)
G|-------------------------------------------|
D|-------------------------------------------|
A|-------------------------------------------|
E|-------------------------------------------|

Em   Em   Em   Em   Em   Em   C    (4x)
(junto com o viol„o 2)

(dedilhado final)
E|-----------------------------------------------|
B|-----1----------1----------1----------0--------|
G|-----------------------------------------------|
D|---2---2------3---3------2---2------5---5------|
A|-0----------0----------3----------5------------|
E|-----------------------------------------------|

( C ) tocando lentamente cada corda
Tap to rate this tab
 
# A B C D E F G H I J K L M N O P Q R S T U V W X Y Z