Song name
# A B C D E F G H I J K L M N O P Q R S T U V W X Y Z

Misc Computer Games - Uncharted Theme tab

Uncharted Theme - PS3
Did this totally by ear. Maybe wrong but it sounds good to me. It's only the 
beginning part of the song.

Tuning - standard (eadgbe)

~ - Hold Note
S - Slide

e|------------------------------------|
B|------------------------------------|
G|-------9-7~-7-5-10~~-10~-9-7-5-9-7~-|
D|7-9-10------------------------------|
A|------------------------------------|
E|------------------------------------|

e|---------------------------------|
B|---------------------------------|
G|7-9-10~-10-9-7-5-9-7-------------|
D|--------------------5-7~~s10s7~~-|
A|---------------------------------|
E|---------------------------------|

Thats the only part i could tab. it's the best part of the theme in my opinion. 
leave a comment and enjoy playing \,,/

Tap to rate this tab
 
# A B C D E F G H I J K L M N O P Q R S T U V W X Y Z