Misc Computer Games - Megaman X - Storm Eagle tab

This is a tab for 'Storm Eagle', from the Megaman X series. Have fun!

Guitar II (intro)
E|---------------------------------------------------|
B|---------------------------------------------------|
G|-----4-----4---2--------------4-----4---2----------|
D|-----4-----4---2--------------4-----4---2----------|
A|-2-2---2-2-----0------0-1-2-2---2-2-----0------0-1-|
E|--------------------2------------------------2-----|
PM . .   . .          . . . . .   . .          . . .

  Guitar I
E|---------------------------14~---15--14p12h14-12p10p9---------------|
A|-12~-----11-12-14-15p14p12------------------------------------------|
D|-------------------------------------------------------11p9h11------|
G|--------------------------------------------------------------------|
B|--------------------------------------------------------------------|
E|--------------------------------------------------------------------|
 |                                                                    |
 |Guitar II                                                           |
E|--------------------------------------------------------------------|
A|--------------------------------------------------------------------|
D|-----4-------4------------------------------------------------------|
G|-----4-------4-------4-------4-------5-------5-------7-------8------|
B|-2-2---2-2-2---2-----4-------4-------5-------5-------7-------8------|
E|-----------------2-2---2-2-2---2-3-3---3-3-3---3-5-5---5-6-6---6----|
PM . .   . . .   . . .   . . .   . . .   . . .   . . .   . . .   .

  Guitar I
E|---------------------------14~---15--14p12h14-12p10p9----14~--------|
A|-12~-----11-12-14-15p14p12------------------------------------------|
D|--------------------------------------------------------------------|
G|--------------------------------------------------------------------|
B|--------------------------------------------------------------------|
E|--------------------------------------------------------------------|
 |                                                                    |
 |Guitar II                                                           |
E|--------------------------------------------------------------------|
A|--------------------------------------------------------------------|
D|-----4-------4------------------------------------------------------|
G|-----4-------4-------4-------4-------5-------5-------7-------8------|
B|-2-2---2-2-2---2-----4-------4-------5-------5-------7-------8------|
E|-----------------2-2---2-2-2---2-3-3---3-3-3---3-5-5---5-6-6---6----|
PM . .   . . .   . . .   . . .   . . .   . . .   . . .   . . .   .

  Guitar I
E|----------19----------19-21-19-18-21-19-18-21-18-22~--24~--26-24-22~|
A|-20----20----20----20-----------------------------------------------|
D|----19----------19--------------------------------------------------|
G|--------------------------------------------------------------------|
B|--------------------------------------------------------------------|
E|--------------------------------------------------------------------|
 |                                                                    |
 |Guitar III                                                          |
E|-------15~---17-19-------18----16-------18-------19~--21~--22-21-19~|
A|-------------------------------------19-----------------------------|
D|--------------------------------------------------------------------|
G|--------------------------------------------------------------------|
B|--------------------------------------------------------------------|
E|--------------------------------------------------------------------|
 |                                                                    |
 |Guitar II                                                           |
E|--------------------------------------------------------------------|
A|--------------------------------------------------------------------|
D|---------------------------------4-4-4-4-6-6-6-6-7-7-7-7-11-11-11-11|
G|-----5-------5-------4-------4---4-4-4-4-6-6-6-6-7-7-7-7-11-11-11-11|
B|-----5-------5-------4-------4---2-2-2-2-4-4-4-4-5-5-5-5-9--9--9--9-|
E|-3-3---3-3-3---3-2-2---2-2-2---2------------------------------------|
PM . .   . . .   . . .   . . .   .

  Guitar I
E|----------19----------19-21-19-18-21-19-18-21-|
A|-20----20----20----20-------------------------|
D|----19----------19----------------------------|
G|----------------------------------------------|
B|----------------------------------------------|
E|----------------------------------------------|
 |                                              |
 |Guitar III                                    |
E|-------15~---17-19-------18----16-------18----| (At this last part, I tried
A|-------------------------------------19-------|  to 'synchronize' the
D|----------------------------------------------|  guitars. They're kind of 
G|----------------------------------------------|  'shown' at the same time.
B|----------------------------------------------|  Guitar II is stil at the
E|----------------------------------------------|  same rhythm as earlier)
 |                                              |
 |Guitar II                                     |
E|----------------------------------------------|
A|----------------------------------------------|
D|----------------------------------------------|
G|-------5----------5------------4-----------4--|
B|-------5----------5------------4-----------4--|
E|-3--3----3---3--3----3---2--2----2---2--2----2|
PM .  .    .   .  .    .   .  .    .   .  .    .

  Guitar I
E|-19p17h19-14p12h14-10p9h10-7p5h7------------------------------------|
A|---------------------------------7p5h7------------------------------|
D|---------------------------------------7p6h7-4p2h4------------------|
G|--------------------------------------------------------------------|
B|--------------------------------------------------------------------|
E|--------------------------------------------------------------------|
 |                                                                    |
 |Guitar II                                                           |
E|--------------------------------------------------------------------|
B|o-------------------------------------------------------------------|
G|------4-----4---2--------------4-----4---2--------------------------|
D|------4-----4---2--------------4-----4---2--------------------------|
A|o-2-2---2-2-----0------0-1-2-2---2-2-----0------0-1-----------------|
E|---------------------2------------------------2---------------------|
PM  . .   . .          . . . . .   . .          . . .

And this whole thing can be played over and over again :). This is how I
would play it. Feel free to comment and rate!
Tap to rate this tab
 
# A B C D E F G H I J K L M N O P Q R S T U V W X Y Z