Song name
# A B C D E F G H I J K L M N O P Q R S T U V W X Y Z

Misc Computer Games - Sonic The Hedgehog 2 - Aquatic Ruin Zone tab

Sonic The Hedgehog 2
Aquatic Ruins Zone
Guitar Tab
Stndard Tuning - EADGBE
Tabbed By Jonathan Mack

/ Slide Up
H Hold Hote (While Hitting Notes On Other Strings)

Intro/Verse

|-------------17HHHHHHHHHHHHH------|-------------17HHHHHHHHHHHHH-------->
|15-17--17/18----15-15-15HHHH-14-14|15-17--17/18----15-15-15HHHH-14-14-->
|----------------------------------|------------------------------------>
|----------------------------------|------------------------------------> x1
|----------------------------------|------------------------------------>
|----------------------------------|------------------------------------>

|---------13------|------20-17|17-18-17----------------->
|15-13-15----15-17|20-18------|---------20-18-17-20-19-->
|-----------------|-----------|------------------------->
|-----------------|-----------|-------------------------> x1
|-----------------|-----------|------------------------->
|-----------------|-----------|------------------------->

Fill (This Does Not Have To Be Played)

|----------------------------|
|15-15-13-13-11-11-10--------|
|----------------------------|
|----------------------------| x1
|----------------------------|
|----------------------------|

|---------13------|------20-17|-18-17------------------>
|15-13-15----15-17|20-18------|-------20-18-17--14-15-->
|-----------------|-----------|------------------------>
|-----------------|-----------|------------------------> x1
|-----------------|-----------|------------------------>
|-----------------|-----------|------------------------>

Chorus 

|--------------------|--------------------|----------------|------------>
|13-11----13-11-13-11|11-10----11-10-11-10|10-8---10-8-10-8|7-7-8-8-10-->
|------12------------|------10------------|-----9----------|------------>
|--------------------|--------------------|----------------|------------> x1
|--------------------|--------------------|----------------|------------>
|--------------------|--------------------|----------------|------------>

|--------------------|--------------------|----------------|--------------|
|13-11----13-11-13-11|11-10----11-10-11-10|10-8---10-8-10-8|--------------|
|------12------------|------10------------|-----9----------|7-7-7--7-7-7--|
|--------------------|--------------------|----------------|--------------| x1
|--------------------|--------------------|----------------|--------------|
|--------------------|--------------------|----------------|--------------|

Then Go Back Into The Verse And Repeat As Many Times As You Like.
Tap to rate this tab
 
# A B C D E F G H I J K L M N O P Q R S T U V W X Y Z