Misc Computer Games - Super Mario Brothers - Delfino Plaza tab

I have yet to tab this completely. But i have themain guitar part and part of what 
comes in as an accordion (I apologize if I spelled that incorrectly).

What we would hear keeping time on a bass or cello (whatever it is) i transposed 
it (sloppily) into guitar and then made it into chords.
I also palm mute this to get kind of a gentle energy wave feeling
e|--------------------------------|
b|--------------------------------|
g|2-2-5-5-4-4-3-3-2-2-5-5-4-4-3-3-|
D|2-2-5-5-4-4-3-3-2-2-5-5-4-4-3-3-|
A|0-0-3-3-2-2-1-1-0-0-3-3-2-2-1-1-|
E|--------------------------------|

The real guitar part
e|--9-9-------------9-9-----------|
b|------10---12==-------10---12==-|
g|--------99---------------99-----|
D|--------------------------------|
A|--------------------------------|
E|--------------------------------|

e|--9-9-9-10----------------------|
b|-----------7-79-10=============-|
g|--------------------------------|
D|--------------------------------|
A|--------------------------------|
E|--------------------------------|

Accordion
e|-/10===-----10--9==============-|
b|-------/10----------------------|
g|--------------------------------|
D|--------------------------------|
A|--------------------------------|
E|--------------------------------|

e|-/10===-----10--9======\5======-|
b|-------/10----------------------|
g|--------------------------------|
D|--------------------------------|
A|--------------------------------|
E|--------------------------------|

e|-/10===-----10--9==\7==\6======-|
b|-------/10----------------------|
g|--------------------------------|
D|--------------------------------|
A|--------------------------------|
E|--------------------------------|

e|-/5====-----5==\4======/12=====-|
b|--------6==---------------------|
g|--------------------------------|
D|--------------------------------|
A|--------------------------------|
E|--------------------------------|

That's all I have figured out for now
Tap to rate this tab
 
# A B C D E F G H I J K L M N O P Q R S T U V W X Y Z