Song name
# A B C D E F G H I J K L M N O P Q R S T U V W X Y Z

Misc Computer Games - Pokemon - Celadon City Theme tab

                                         Pokemon
                                    CELADON CITY THEME	
                                  Gold - Silver - Crystal




Guitar 1



      S  S  S  S  S  S  S  S  H              Q     Q     E   Q    E   
E||--10----10-12-14-12-14-15-17--------||---19----------19-----------|
B||-----14-----------------------------||---------20--------20-------|
G||------------------------------------||*---------------------------|
D||------------------------------------||*---------------------------|
A||------------------------------------||----------------------------|
E||------------------------------------||----------------------------|


   S  S  S  S  E   E   Q    Q        Q     Q     E   Q    E   
--19----17-19-20--19--17---------|--17----------17-----------|
-----20--------------------------|--------19--------19-------|
---------------------------------|---------------------------|
---------------------------------|---------------------------|
---------------------------------|---------------------------|
---------------------------------|---------------------------|


   S  S  S  S  E   E   Q     Q        Q     Q     E   Q    E   
--17-15-14-15-17--19--------19----|--19----------19-----------|
----------------------20----------|--------20--------20-------|
----------------------------------|---------------------------|
----------------------------------|---------------------------|
----------------------------------|---------------------------|
----------------------------------|---------------------------|


   S  S  S  S  E   E   Q    Q        E   E   E   E   E   E   E   E   
--19----17-19-20--19--17---------|--17--15--14--15--14--------------|
-----20--------------------------|----------------------17--15--14--|
---------------------------------|----------------------------------|
---------------------------------|----------------------------------|
---------------------------------|----------------------------------|
---------------------------------|----------------------------------|


   E  E   S  S  S  S  Q.     E     E  S S E  E  E  E  E  E   
------------------17-22---------|---------------------------|
--15-----15-17-19---------------|---------------------------|
--------------------------------|---------------------------|
--------------------------------|---------0-----------0-----|
--------------------------------|-------2----------2--------|
-----------------------------2--|--3------------3-----------|


  E  S S E  E  E  E  E  E     E  S S E  E  E  E  E  E   
---------------------------|---------------------------|
---------------------------|---------------------------|
---------------------------|---------------------------|
---------0-----------0-----|-------0-4--------0--4-----|
-------3----------2--------|--0------------0-----------|
--3------------3-----------|---------------------------|


  E  S S E  E  E  Q    E     E  S S E  E  E  E  E  E   
--------------------------|---------------------------|
--------------------------|---------------------------|
--------------------------|---------------------------|
------------0-------------|---------0-----------0-----|
-------2-0-----0----------|-------2----------2--------|
--3--------------------2--|--3------------3-----------|


  E  S S E  E  E  E  E  E     E  S S E  E  E  E  E  E   
---------------------------|---------------------------|
---------------------------|---------------------------|
---------------------------|---------------------------|
---------0-----------0-----|-------0-4--------0--4-----|
-------3----------2--------|--0------------0-----------|
--3------------3-----------|---------------------------|


  E  S S E  E  E  Q     S  S     H        H         REPEAT INFINITELY
-----------------------14-17-|--22------------------||
-----------------------------|----------------------||
---------2-------------------|---------------------*||
-------0-------0-------------|---------------------*||
--0--------------------------|----------------------||
-----------------------------|----------------------||










Guitar 2



     Q.     S S S S E  E  E       E  S S S S S S E  S S S S S S  
E||--5------L-4-5------------||--------7-----7--------7-----7---|
B||--------------------5--7--||------8-----8---8----8-----8---8-|
G||---------------7----------||*--7------7-------7------7-------|
D||--------------------------||*--------------------------------|
A||--------------------------||---------------------------------|
E||--------------------------||---------------------------------|


  E  S S S S S S E  S  S  S S  S  S    E  S S S S S S E  S S S S S S  
-------7-----7-----------10-9-10----|-------5-----5--------5-----5---|
-----8-----8---8----7-10---------10-|-----7-----7---7----7-----7---7-|
--7------7-------7------------------|--7------7-------7------7-------|
------------------------------------|--------------------------------|
------------------------------------|--------------------------------|
------------------------------------|--------------------------------|


  E  S S S S S S S S S S  S S S S    E  S S S S S S E  S S S S S S  
-------5-----5---------7-10-8-7---|-------7-----7--------7-----7---|
-----7-----7---7-----8----------8-|-----8-----8---8----8-----8---8-|
--7------7-------7----------------|--7------7-------7------7-------|
----------------------------------|--------------------------------|
----------------------------------|--------------------------------|
----------------------------------|--------------------------------|


  E  S S S S S S E  S  S  S S  S  S    S S S S S S S S E  E  E  E   
-------7-----7-----------10-9-10----|--------------5-7-5-----------|
-----8-----8---8----7-10---------10-|--------5-7-8--------8--7--5--|
--7------7-------7------------------|--7-6-7-----------------------|
------------------------------------|------------------------------|
------------------------------------|------------------------------|
------------------------------------|------------------------------|


  E  E  Q    H           E  S S E  S S E  S S E  S S  
----------------------|------------------------------|
--7-------------------|-------3------3------3------3-|
----------------------|-----4------4------4------4---|
----------------------|--5------5------5------5------|
----------------------|------------------------------|
----------------------|------------------------------|


  E  S S S S S S S S S S  S S  S S    E  S S E  S S E  S S E  S S  
---------------5---5-7-8-10-9-10-7-|-------5------5------5------5-|
-----------5-7---8-----------------|-----7------7------7------7---|
--5--4-5-7-------------------------|--7------7------7------7------|
-----------------------------------|------------------------------|
-----------------------------------|------------------------------|
-----------------------------------|------------------------------|


  E  S S S S  S S S S  S S  S S S  S    E  S S E  S S E  S S E  S S  
------------------------------8-7----|------------------------------|
-----------8-10-8-7-8-10-9-10-----10-|-------3------3------3------3-|
---------7---------------------------|-----4------4------4------4---|
--9--8-9-----------------------------|--5------5------5------5------|
-------------------------------------|------------------------------|
-------------------------------------|------------------------------|


  E  S S S S S S S S S S  S S  S S    E  S S E  S S E  S S E  S S  
---------------5---5-7-8-10-9-10-7-|-------5------5------5------5-|
-----------5-7---8-----------------|-----7------7------7------7---|
--5--4-5-7-------------------------|--7------7------7------7------|
-----------------------------------|------------------------------|
-----------------------------------|------------------------------|
-----------------------------------|------------------------------|


  E  S S S S  S S  E  E  Q       Q.     S S S S E  E  E  REPEAT INFINITELY
------------------------------|--5------L-4-5-------------||
-----------8-10-8-10----------|--------------------5--7---||
---------7--------------------|---------------7----------*||
--9--8-9----------------------|--------------------------*||
------------------------------|---------------------------||
------------------------------|---------------------------||










Guitar 3



     Q    Q    H             Q    Q    Q    Q       Q    Q    E  E  E.  S  
E||---------------------||-----------------------|------------------------|
B||---------------------||-----------------------|------------------------|
G||--2------------------||*----------------------|------------------------|
D||-------4----0--------||*-------0---------0----|-------0-------0--4-----|
A||---------------------||-----------------------|------------0-----------|
E||---------------------||---3---------3---------|--3-------------------4-|


  Q    Q    Q    Q       Q    Q    E  E  E.  S    Q    Q    Q    Q     
----------------------|------------------------|----------------------|
----------------------|------------------------|----------------------|
----------------------|------------------------|----------------------|
-------0---------0----|-------0----------0-----|-------0---------0----|
--0---------0---------|--0------------2--------|----------------------|
----------------------|------------3---------2-|--3---------3---------|


  Q    E.  S E  E  E.  S    E  E  E.  S E  E  E  E     Q    Q    Q    Q     
-------------------------|--------------------------|----------------------|
-------------------------|--------------------------|----------------------|
-------------------------|--------------------------|----------------------|
-------0--------0--4-----|-----0--4-----------2-----|--0-------------------|
-------------0-----------|--0-----------0--4-----4--|------------0---------|
--3--------4-----------4-|------------4-------------|----------------------|


   H        E  E   E  E      Q     Q     H            H         E   E   E   E   
--10--------8--7------7--|--12----14--------------|------------------------10--|
------------------10-----|--------------15--------|--13------------12--13------|
-------------------------|------------------------|------------14--------------|
-------------------------|------------------------|----------------------------|
-------------------------|------------------------|----------------------------|
-------------------------|------------------------|----------------------------|


   Q     E   E   Q    Q        H        E  E   E  E   
--12----10--12--10---------|--10--------8--7------7--|
---------------------------|------------------10-----|
---------------------------|-------------------------|
---------------------------|-------------------------|
---------------------------|-------------------------|
---------------------------|-------------------------|


   Q     E   E   Q    Q        H         E   E   E   E   
--12----10--12--10---------|------------17--15--14------|
---------------------------|------------------------17--|
---------------------------|--17------------------------|
---------------------------|----------------------------|
---------------------------|----------------------------|
---------------------------|----------------------------|


   E   E   E   E   Q    Q       Q    Q    Q.     S S  REPEAT INFINITELY
--14-------------------------|------------------------||
------17--15--17--15---------|------------------------||
-----------------------------|--2--------------------*||
-----------------------------|-------4----0------L---*||
-----------------------------|------------------------||
-----------------------------|---------------------2--||




Duration Legend
---------------
W - whole
H - half
Q - quarter
E - 8th
S - 16th
T - 32nd
X - 64th
. - note dotted
|-n-|  - n-tuplets


Tablature Legend
----------------
L - tied note
x - dead note
g - grace note
(n) - ghost note
> - accentuded note
NH - natural harmonic
AH - artificial harmonic
TH - tapped harmonic
SH - semi harmonic
PH - pitch harmonic
h - hammer on
p - pull off
b - bend
br - bendRelease
pb - preBend
pbr - preBendRelease
brb - bendReleaseBend
\n/ - tremolo bar dip
\n - tremolo bar dive
-/n - tremolo bar Release up
/n\ - tremolo bar inverted dip
/n - tremolo bar return
-\n - tremolo bar Release down
S - shift slide
s - legato slide
/ -  slide into from below or out of upwards
\ -  slide into from above or out of downwards
~ - vibrato
W - wide vibrato
tr - trill
TP - tremolo picking
T - tapping
S - slap
P - pop
< - fade in
^ - brush up
v - brush down

Tap to rate this tab
 
# A B C D E F G H I J K L M N O P Q R S T U V W X Y Z