Misc Computer Games - Pokemon - Cherrygrove City Theme tab

                                         Pokemon
                                  CHERRYGROVE CITY THEME	
                                  Gold - Silver - Crystal




Guitar 1



      E   E   E   E   E   E   E   E        Q.      Q     E   E   E   
E||----------------------------------||-----------10----10----------|
B||--------------------------10--11--||---13----------------13--11--|
G||----------------------12----------||*----------------------------|
D||--10--12--14--12--14--------------||*----------------------------|
A||----------------------------------||-----------------------------|
E||----------------------------------||-----------------------------|


   Q.      E   H            Q.      Q     E   E   E      Q.      E   H         
------------------------|----------------------------|------------------------|
--13------10------------|--11------13----13--11--10--|--11--------------------|
--------------10--------|----------------------------|----------12------------|
------------------------|----------------------------|--------------14--------|
------------------------|----------------------------|------------------------|
------------------------|----------------------------|------------------------|


   Q.      Q.      Q       Q.      E   H            Q.      Q.      Q     
------------------10----|--8--------------------|------------------10----|
------------------------|---------10------------|------------------------|
----------10------------|-------------10--------|----------10------------|
--12--------------------|-----------------------|--12--------------------|
------------------------|-----------------------|------------------------|
------------------------|-----------------------|------------------------|


  W                    Q.      Q.      Q       Q.      E   H         
--8----------------|------------------10----|--8--------------------|
-------------------|------------------------|---------10------------|
-------------------|----------10------------|-------------10--------|
-------------------|--12--------------------|-----------------------|
-------------------|------------------------|-----------------------|
-------------------|------------------------|-----------------------|


   Q.      Q.      Q        W          REPEAT INFINITELY
------------------------|---------------------||
------------------------|---------------------||
----------10------12----|--10----------------*||
--11--------------------|--------------------*||
------------------------|---------------------||
------------------------|---------------------||










Guitar 2



     H        E   E   E   E        Q     E   E   E   E   E   E   
E||--------------------------||---------------------------------|
B||--------------------------||---10--------10--11--10----------|
G||--------------------------||*--------13--------------12--10--|
D||--------------10--12--14--||*--------------------------------|
A||--------------------------||---------------------------------|
E||--------------------------||---------------------------------|


   Q.      E   E  E   E  E      Q     E   E   E   E   E  E   
----------------------------|-------------------------------|
--10------------------------|----------------10-------------|
----------10-------------9--|--12----11--12------12--10--9--|
--------------10--8--10-----|-------------------------------|
----------------------------|-------------------------------|
----------------------------|-------------------------------|


   Q.      E   E   E   E   E      Q.      Q.      Q     
------------------------------|------------------------|
------------------------------|------------------11----|
--12--------------------------|------------------------|
----------14--10----------10--|----------12------------|
------------------13--12------|--13--------------------|
------------------------------|------------------------|


   Q.      E   H            Q.      Q.      Q        Q     Q     Q     Q     
------------------------|------------------------|--------------------------|
--10--------------------|------------------10----|--------------------------|
----------10------------|------------------------|--12----------------------|
--------------10--------|----------12------------|--------14----12----14----|
------------------------|--13--------------------|--------------------------|
------------------------|------------------------|--------------------------|


   Q.      Q.      Q        Q.      E   Q    Q       Q.      E  Q     Q     
------------------------|-------------------------|------------------------|
------------------11----|--10---------------------|------------------------|
------------------------|----------10-------------|------------------------|
----------12------------|--------------10----9----|--8------11--8----------|
--13--------------------|-------------------------|------------------10----|
------------------------|-------------------------|------------------------|


   Q     Q     Q     Q   REPEAT INFINITELY
---------------------------||
---------------------------||
--------------------------*||
--------10----------10----*||
--12----------12-----------||
---------------------------||










Guitar 3



     Q    E  E  E  E  E  E       E  E  E  Q    E  E  E   
E||-------------------------||--------------------------|
B||-------1-----------------||------------1-------------|
G||----------3--2--0--------||*--2-----2----------0--2--|
D||-------------------3--2--||*-----3----------3--------|
A||-------------------------||--------------------------|
E||-------------------------||--------------------------|


  E  E  E  Q    E  E  E     E  E  E  Q    E  E  E     Q    E  E  E  E  E  E   
-------------------------|-------------------------|-------------------------|
-----------1-------------|-----------1-------------|-------1-----------------|
--2-----2----------0--2--|--3--0--3----------0--2--|--3-------3--2--0--------|
-----3----------3--------|----------------3--------|-------------------3--2--|
-------------------------|-------------------------|-------------------------|
-------------------------|-------------------------|-------------------------|


  E  Q    E  E  E  E  E     E  Q    E  E  E  E  E     E  Q    E  E  E  E  E   
-------------------------|-------------------------|-------------------------|
-------------------------|-------------------------|-------------------------|
----------3-----3--2--0--|-----2-------2-----------|----------3-----3--2--0--|
--0--3-------3-----------|--3-------3-----3--2--1--|--0--3-------3-----------|
-------------------------|-------------------------|-------------------------|
-------------------------|-------------------------|-------------------------|


  E  E  E  E  E  E  E  E     E  Q    E  E  E  E  E     E  Q    E  E  E  E  E   
--------------------------|-------------------------|-------------------------|
-----------1--------------|-------------------------|-------------------------|
-----0--3-----3--2--0-----|----------3-----3--2--0--|-----2-------2-----------|
--2--------------------3--|--0--3-------3-----------|--3-------3-----3--2--1--|
--------------------------|-------------------------|-------------------------|
--------------------------|-------------------------|-------------------------|


  E  Q    E  E  E  E  E     E  E  E  E  E  E  E  E  REPEAT INFINITELY
-------------------------|---------------------------||
-------------------------|---------------------------||
----------3-----3--2--0--|-----2-----2-----2-----2--*||
-----3-------3-----------|--3-----3-----3-----3-----*||
--4----------------------|---------------------------||
-------------------------|---------------------------||




Duration Legend
---------------
W - whole
H - half
Q - quarter
E - 8th
S - 16th
T - 32nd
X - 64th
. - note dotted
|-n-|  - n-tuplets


Tablature Legend
----------------
L - tied note
x - dead note
g - grace note
(n) - ghost note
> - accentuded note
NH - natural harmonic
AH - artificial harmonic
TH - tapped harmonic
SH - semi harmonic
PH - pitch harmonic
h - hammer on
p - pull off
b - bend
br - bendRelease
pb - preBend
pbr - preBendRelease
brb - bendReleaseBend
\n/ - tremolo bar dip
\n - tremolo bar dive
-/n - tremolo bar Release up
/n\ - tremolo bar inverted dip
/n - tremolo bar return
-\n - tremolo bar Release down
S - shift slide
s - legato slide
/ -  slide into from below or out of upwards
\ -  slide into from above or out of downwards
~ - vibrato
W - wide vibrato
tr - trill
TP - tremolo picking
T - tapping
S - slap
P - pop
< - fade in
^ - brush up
v - brush down
Tap to rate this tab
 
# A B C D E F G H I J K L M N O P Q R S T U V W X Y Z