Misc Computer Games - Pokemon - Pokemon Lullaby Theme tab

                                         Pokemon
                                  POKEMON LULLABY THEME
                            (from the radio in Goldenrod City)	
                                  Gold - Silver - Crystal




Pan Flute (arr. for guitar/rhythm guitar)



      E  E  E  E  E  E   E  E        E   E   E  E   E  E   E   E   
E||------------7--8--7---------||---------------8--10--8----------|
B||---------8-----------10--8--||-----------10------------12--10--|
G||------9---------------------||*------10------------------------|
D||--10------------------------||*--12----------------------------|
A||----------------------------||---------------------------------|
E||----------------------------||---------------------------------|


   E  E  E  E  E  E   E  E      E   E   E  E   E  E   E   E   
------------7--8--7---------|--------------8--10--8----------|
---------8-----------10--8--|----------10------------12--10--|
------9---------------------|------10------------------------|
--10------------------------|--12----------------------------|
----------------------------|--------------------------------|
----------------------------|--------------------------------|


   E  E  E  E  E  E   E  E      E   E   E  E   E  E   E   E   
------------7--8--7---------|--------------8--10--8----------|
---------8-----------10--8--|----------10------------12--10--|
------9---------------------|------10------------------------|
--10------------------------|--12----------------------------|
----------------------------|--------------------------------|
----------------------------|--------------------------------|


   E  E  E  E  E  E   E  E      E   E   E  E   E  E   E   E   
------------7--8--7---------|--------------8--10--8----------|
---------8-----------10--8--|----------10------------12--10--|
------9---------------------|------10------------------------|
--10------------------------|--12----------------------------|
----------------------------|--------------------------------|
----------------------------|--------------------------------|


   E  E  E  E  E  E   E  E      E   E   E  E   E  E   E   E   
------------7--8--7---------|--------------8--10--8----------|
---------8-----------10--8--|----------10------------12--10--|
------9---------------------|------10------------------------|
--10------------------------|--12----------------------------|
----------------------------|--------------------------------|
----------------------------|--------------------------------|


                               Repeat infinitely    
   E  E  E  E  E  E   E  E                
------------7--8--7-------------------------||
---------8-----------10--8------------------||
------9------------------------------------*||
--10---------------------------------------*||
--------------------------------------------||
--------------------------------------------||










Guitar I



     W                     H        E   E   E   E      H        Q     E   E   
E||-------------------||---------------15--14--15--|--12-----------------12--|
B||-------------------||---------------------------|-----------------15------|
G||-------------------||*--------------------------|-------------------------|
D||-------------------||*--------------------------|-------------------------|
A||-------------------||---------------------------|-------------------------|
E||-------------------||---------------------------|-------------------------|


   Q     Q     E   E   E   E      H        E   E   E   E   
--13----15----13--12------13--|--12-------------------12--|
----------------------15------|---------------15--15------|
------------------------------|---------------------------|
------------------------------|---------------------------|
------------------------------|---------------------------|
------------------------------|---------------------------|


   Q     Q     Q     E   E      E   H        Q.         H         Q     E   E   
--13----12----13----15--15--|-----------------------|------------------15--15--|
----------------------------|--16--17---------------|--------------------------|
----------------------------|-----------------------|--------------------------|
----------------------------|-----------------------|--15--------17------------|
----------------------------|-----------------------|--------------------------|
----------------------------|-----------------------|--------------------------|


                                              Repeat infinitely    
   E   H        Q.        W                   W                 99x
-----------------------|-------------------|---------------------||
--16--17---------------|-------------------|---------------------||
-----------------------|-------------------|--------------------*||
-----------------------|-------------------|--------------------*||
-----------------------|-------------------|---------------------||
-----------------------|-------------------|---------------------||










Guitar II



     H        H             H        H           H        H         
E||--------------------||---8-----------------|--------------------|
B||--8-----------------||---------------------|--8-----------------|
G||--------------------||*--------------------|--------------------|
D||--------------------||*--------------------|--------------------|
A||--------------------||---------------------|--------------------|
E||--------------------||---------------------|--------------------|


  H        H           H        H           H        H         
--8--------7--------|--------------------|--8--------7--------|
--------------------|--8-----------------|--------------------|
--------------------|--------------------|--------------------|
--------------------|--------------------|--------------------|
--------------------|--------------------|--------------------|
--------------------|--------------------|--------------------|


  H        E  E  E  E     Q    Q    Q    Q       H        H         
--------------------7--|--8----7----8----7----|--------------------|
--8-----------8--8-----|----------------------|--8-----------------|
-----------------------|----------------------|--------------------|
-----------------------|----------------------|--------------------|
-----------------------|----------------------|--------------------|
-----------------------|----------------------|--------------------|


                                Repeat infinitely    
  H        H           H        H                 99x
--8--------7--------|------------------------------||
--------------------|--8---------------------------||
--------------------|-----------------------------*||
--------------------|-----------------------------*||
--------------------|------------------------------||
--------------------|------------------------------||




Duration Legend
---------------
W - whole
H - half
Q - quarter
E - 8th
S - 16th
T - 32nd
X - 64th
. - note dotted
|-n-|  - n-tuplets


Tablature Legend
----------------
L - tied note
x - dead note
g - grace note
(n) - ghost note
> - accentuded note
NH - natural harmonic
AH - artificial harmonic
TH - tapped harmonic
SH - semi harmonic
PH - pitch harmonic
h - hammer on
p - pull off
b - bend
br - bendRelease
pb - preBend
pbr - preBendRelease
brb - bendReleaseBend
\n/ - tremolo bar dip
\n - tremolo bar dive
-/n - tremolo bar Release up
/n\ - tremolo bar inverted dip
/n - tremolo bar return
-\n - tremolo bar Release down
S - shift slide
s - legato slide
/ -  slide into from below or out of upwards
\ -  slide into from above or out of downwards
~ - vibrato
W - wide vibrato
tr - trill
TP - tremolo picking
T - tapping
S - slap
P - pop
< - fade in
^ - brush up
v - brush down
Tap to rate this tab
 
# A B C D E F G H I J K L M N O P Q R S T U V W X Y Z