Misc Computer Games - Lion King - Be Prepared Megadrivegenesis Edition tab

Heres the tabs to the song Be Prepared which appears in the background to the level 
Elephant Graveyard on Lion King.
It is based on the Sega Megadrive version opposed to the SNES version but I think they 
are fairly similar anyway.
These tabs are from me listening to the song over and over again.

E--------------------------------------------------------------------------|
B--------------------------------------------------------------------------|
G--------------------------------------------------------------------------|
D--------------------------------------------------------------------------|
A-----------------------------------------------------------5--------------|
E---------5--5--5----5--7--8--7--5--8--5--------8--7--7--8-----8--7--8--5--|

E---------------------------------------------------------------------------|
B---------------------------------------------------------------------------|
G---------------------------------------------------------------------------|
D---------------------------------------------------------------------------|
A------------------------------5--7--8--5-----------8--7--5-----------------|
E----------5--5--5----5--7--8--------------------------------8--7--8--7--5--|


E---------------------------------------------------------------------------|
B---------------------------------------------------------------------------|
G---------------------------------------------------------------------------|
D---------------------------------------------------------------------------|
A----------6----6----5-------6----------------5-6-----6----5-------7--------|
E-------------------------8-----5-------------------------------8-----------|

E---------------------------------------------------------------------------|
B---------------------------------------------------------------------------|
G---------------------------------------------------------------------------|
D---------------------------------------------------------------------------|
A-------------------5-------------------------------------------------------|
E-----3-5-7---7--8-----8--7--8------------3------3-3-3---3--4----0----------|

E---------------------------------------------------------------------------|
B---------------------------------------------------------------------------|
G---------------------------------------------------------------------------|
D-----------------------------------------------------5--7------------------|
A------5--7--------5--7--5-----7--5--------5-7-8---8-----------5--7---------|
E---8-----------8-----------8-------------------------------8---------------|

E---------------------------------------------------------------------------|
B---------------------------------------------------------------------------|
G---------------------------------------------------------------------------|
D-----5--5--5--5-----------------------------------5------------------------|
A-----------------7--------8--8--8--5-----------------8--7--5---------------|
E--8--------------------8--------------------------------------7------------|

E---------------------------------------------------------------------------|
B---------------------------------------------------------------------------|
G---------------------------------------------------------------------------|
D--------5----------5----------5----------5---------5--5--5--5--------------|
A--7--8-------7--8-------7--8-------7--8------7--8--------------8--7--8-----|
E---------------------------------------------------------------------------|

E---------------------------------------------------------------------------|
B---------------------------------------------------------------------------|
G-----------------------------------13---13---14~~~-------------------------|
D---------------------5-----------------------------------------------------|
A---8--8--8--8--8--8------7------------------------------------8--8--8--7---|
E---------------------------------------------------------------------------|
Tap to rate this tab
 
# A B C D E F G H I J K L M N O P Q R S T U V W X Y Z