Misc Computer Games - Monster Hunter Theme tab

Guitarra
            
E||--------------------------|--------------------------------|
B||--------------------------|------------------11----11--11--|
G||--10----10--10--------10--|--10--10--10--10--10----10--10--|
D||---8-----8---8---------8--|---8---8---8---8---8-----8---8--|
A||--------------------------|--------------------------------|
E||--------------------------|--------------------------------|


    
------------------------------|--13----13--13--------13--|--13--13--13--13--|
--L-------11--11--11--11--11--|--11----11--11--------11--|--11--11--11--11--|
--L-------10--10--10--10--10--|--10----10--10--------10--|--10--10--10--10--|
--L--------8---8---8---8---8--|---8-----8---8---------8--|---8---8---8---8--|
------------------------------|--------------------------|------------------|
------------------------------|--------------------------|------------------|


        
|--------------------------|-------------------------|-------------------------|
|--------------------------|---------------11--------|--9----------------------|
|*--8-----8--10~-----------|--8--10--8---------------|-----11--10--------------|
|*-----8----------------8--|------------8------------|-----------------11------|
|--------------------------|-------------------------|-------------------------|
|--------------------------|-------------------------|-------------------------|


                 
----------------------------|------------------------------|
----------------------------|------------------------------|
--8--10--11----10--8--10----|--L---------------------------|
----------------------------|-----11------8----------------|
----------------------------|------------------------------|
----------------------------|------------------------------|


       
-------------------------|-------------------------|-------------------------|
-------------------------|---------------11--------|--9----------------------|
--8-----8--10~-----------|--8--10--8---------------|-----11--10--------------|
-----8----------------8--|------------8------------|-----------------11------|
-------------------------|-------------------------|-------------------------|
-------------------------|-------------------------|-------------------------|


                   
-----------------------------|--------------------------------||
-----------------------------|-----13------11-----------------||
--8--10--11----10--11--13----|--L----------------------------*||
-----------------------------|-------------------------------*||
-----------------------------|--------------------------------||
-----------------------------|--------------------------------||

Tab hecha por ZodR
Para jugar online Mi PSN ID es: ZodR_ARG
Feel free tu use!
Add me to PSN :D
Tap to rate this tab
 
# A B C D E F G H I J K L M N O P Q R S T U V W X Y Z