Misc Computer Games - Doom 2 - Map 23 - Barrels O Fun tab

DOOM II Soundtrack
MAP23: Barrels o' Fun
Title: Bye Bye American Pie
Based on “Them Bones” by Alice in Chains
Tabbed by drawnacrol
Tuning: E Standard E A D G B E 

Riff 1:
|-------------------------------------------|
|-------------------------------------------|
|-------------------------------------------|
|-------------------------------------------| Gtr 1
|--4--4--4--4--5--5--5--5--6--6--6---7------|
|--4--4--4--4--5--5--5--5--6--6--6---7------|
|     .  .  .  .  .  .  .  .  .  .   .      |
|-------------------------------------------|
|-------------------------------------------|
|-------------------------------------------|
|--5--5--5--5--6--6--6--6--7--7--7---8------| Gtr 2
|--4--4--4--4--5--5--5--5--6--6--6---7------|
|-------------------------------------------|
PM    .  .  .  .  .  .  .  .  .  .   .

Riff 2:
|--------------------------------------------------------------------------|
|--------------------------------------------------------------------------|
|--------------------------------------------------------------------------|
|--------------------------------------------------------------------------|
|--7---7---7--7--7--7--6--6--6--6----9---9---9--9--9--9--8--8--8--8--8--7--|
|--5---5---5--5--5--5--4--4--4--4----7---7---7--7--7--7--6--6--6--6--6--5--|
|  .   .   .  .  .  .  .  .  .  .    .   .   .  .  .  .  .  .  .  .  .  .  |
|--------------------------------------------------------------------------|
|--------------------------------------------------------------------------|
|--9---9---9--9--9--9--8--8--8--8---11--11--11-11-11-11-10-10-10-10-10--9--|
|--7---7---7--7--7--7--6--6--6--6----9---9---9--9--9--9--8--8--8--8--8--7--|
|--------------------------------------------------------------------------|
|--------------------------------------------------------------------------|
   .   .   .  .  .  .  .  .  .  .    .   .   .  .  .  .  .  .  .  .  .  .  

Riff 3:
|---------------------------------|
|---------------------------------|
|---------------------------------|
|---------------------------------| Gtr 1
|--4---4---5---5---6-------7------|
|--4---4---5---5---6-------7------|
|                                 |
|---------------------------------|
|---------------------------------|
|---------------------------------|
|--5---5---6---6---7-------8------| Gtr 1
|--4---4---5---5---6-------7------|
|---------------------------------|


Riff 1 x 8
Riff 2 x 1
Riff 1 x 4
Riff 3 x 8
Riff 2 x 1
Riff 1 x 12
Riff 2 x 1
Tap to rate this tab
 
# A B C D E F G H I J K L M N O P Q R S T U V W X Y Z