Song name
# A B C D E F G H I J K L M N O P Q R S T U V W X Y Z

Misc Computer Games - Teenage Mutant Ninja Turtles - Nes Opening tab

Nes Turtles opening

tab:a.k Senftleber :}

e|----------------------------------------------| 
b|----------------------------------------------| 
g|------------------------------------5-5-7-7---| 
d|---------------5------7-7-7-7-7-5-7-----------| 
a|-7-7-7-7-7-5-7--------------------------------| 
e|----------------------------------------------| 

----

X2
e|---------------12\-----------------15\-----------------| 
b|----------9-12---------------12-15---------------------| 
g|--9\---9-------------12\--12------------14\--17\--16\--| 
d|-------------------------------------------------------| 
a|-------------------------------------------------------| 
e|-------------------------------------------------------| 

1
e|----------------------------------------------| 
b|----------------------------------------------| 
g|-----------------7----------------------------| 
d|-9-9-9-9-9-7-8-9------------------------------| 
a|----------------------------------------------| 
e|----------------------------------------------| 

2
e|----------------------------------------------| 
b|----------------------------------------------| 
g|----------------------------------------------| 
d|---------------5------------------------------| 
a|-7-7-7-7-5-7-7---9-8-7------------------------| 
e|----------------------------------------------| 

----

Solo time bitch   :]
Tap to rate this tab
 
# A B C D E F G H I J K L M N O P Q R S T U V W X Y Z