Song name
# A B C D E F G H I J K L M N O P Q R S T U V W X Y Z

Misc Computer Games - Serious Sam - Jingle Bells tab

Serious sam second encounter - jingle bells

tab:a.k Senftleber :}

----------------------------------------------|
----------------------------------------------|
------------------------12--------------------|
-14-14-14--14-14-14--14----10-12-14--15-15-15-|
----------------------------------------------|
----------------------------------------------|

-----------------------------------|
-----------------------------------|
--------------------------------12-|
-15-15-14-14--14-14-12-12-14-12----|
-----------------------------------|
-----------------------------------|

----------------------------------------------|
----------------------------------------------|
------------------------12--------------------|
-14-14-14--14-14-14--14----10-12-14--15-15-15-|
----------------------------------------------|
----------------------------------------------|

--------------------------------------|
--------------------------------------|
-----------------12-12-12 12-10-------|
-15-15-14-14--14----------------12-10-|
--------------------------------------|
--------------------------------------|

--------------------------------------------|
--------------------------------------------|
--------------------------------------------|
----14-12-10--------14-12-10-------14-12-10-|
-10----------10--10----------12-12----------|
--------------------------------------------|

--------------------------------|
--------------------------------|
-12-12-12-12--12-14-14-12-------|
--------------------------12-14-|
--------------------------------|
--------------------------------|

--------------------------------------------|
--------------------------------------------|
--------------------------------------------|
----14-12-10--------14-12-10-------14-12-10-|
-10----------10--10----------12-12----------|
--------------------------------------------|
aaaaaaaaaaaaaaaaaaaaaaaaaaaaaaAAAAAAAAAAAAAA

-----------------------------------|
-----------------------------------|
-12-12-12-12--12-14-14-12-------12-|
--------------------------12-10----|
-----------------------------------|
-----------------------------------|
AAAAAAAAAAAAAAAAAAAAAAAAAAAAAHHHHHHH¤&/¤/%&¤
Tap to rate this tab
 
# A B C D E F G H I J K L M N O P Q R S T U V W X Y Z