Misc Computer Games - The Last Ninja 2 - The Streets tab

last ninja 2 the streets

tab:a.k Senftleber :}

anyone wanna do the rest ?

e|----------------------------------------------| 
B|----------------------------------------------| 
G|----------------------------------------------| 
D|-10b(12)--------------------------------------| 
A|--------------------5b------------------------| 
D|----------------------------------------------| 

e|---------------------------| 
B|---------------------------| 
G|---------------------------| 
D|---------------------------| 
A|---------------------------| 
D|-0-3-5-6-5-----------------| 

e|--------------------------------13----| 
B|----15-13--------------15-13-------13-| 
G|----------14-12-14-----------14-------| 
D|-12-----------------12----------------| 
A|--------------------------------------| 
D|--------------------------------------| 

e|---------------------------------------------------| 
B|-------------------------------------------10-15---| 
G|-------------------------------10-12-10-12---------| 
D|-10b(12)----10b(12)---12-10-12---------------------| 
A|---------------------------------------------------| 
D|---------------------------------------------------| 

-

e|-16-15-13---------------------------------------| 
B|----------15-13-15------------------------------| 
G|-------------------14-12-14-------12-14---------| 
D|----------------------------15-12----------12---| 
A|----------------------------------------15------| 
D|------------------------------------------------| 
Tap to rate this tab
 
# A B C D E F G H I J K L M N O P Q R S T U V W X Y Z