Song name
# A B C D E F G H I J K L M N O P Q R S T U V W X Y Z

Misc Computer Games - Battletoads In Battlemaniacs - Bonus Level 1 tab

Battletoads in battlemaniacs

bonus level 1

tab:a.k Senftleber :}

e|---------------|
b|---------------|
g|-------------0-|
d|-------------0-|
a|-1-1---0-0-----|
d|-1-1---0-0-----|

e|-----------------3-3-1-| 
b|-----------------3-3-1-| 
g|-----------------------| 
d|-----------------------| 
a|---------1-------------| 
D|-0-3-4/5---5-3-5-------| 
or in standrad tuning
e|-----------------3-3-1-| 
b|-----------------3-3-1-| 
g|---------3-------------| 
d|-0-3-4/5---5-3-5-------| 
a|-----------------------| 
E|-----------------------| 

|----------------------------------------------| 
|----------------------------------------------| 
|----------------------------------------------| 
|-3-3-3-2-2-3----3--3-2-2----------------------| 
|-------------5-----------3-3------------------| 
|----------------------------------------------| 

|------------------------------------------15-13-------13----------| 
|-8-10-11-10-8------8-10-11-10-8-10--------------15-13----15-------| 
|--------------10--------------------------------------------------| 
|------------------------------------------------------------------| 
|------------------------------------------------------------------| 
|------------------------------------------------------------------| 

i dont know bonus level 2... never got so far    :]
Tap to rate this tab
 
# A B C D E F G H I J K L M N O P Q R S T U V W X Y Z