Song name
# A B C D E F G H I J K L M N O P Q R S T U V W X Y Z

Misc Computer Games - Call Of Duty Black Ops - Near Perfect Rip tab

The music you hear when you are waiting to join a match on xbox live

Key: Dm

Strings

    Gm                 Dm
e|-----------------------------------|
B|-----------------------------------|
G|--3------3-----3-----2-------------|
D|-----5-5---5-5---5------3-3--------|  X2
A|-----------------------------------|
D|-----------------------------------|

     C                 Dm
e|-------------------------------|
B|-------------------------------|
G|--5--2-2-5-2-2-5-2---2---------|
D|------------------------3-3----|  
A|-------------------------------|
D|-------------------------------|

At some point, starts the distorted guitar

Guitar
e|--------------------------------------|
B|--------------------------------------|
G|--------------------------------------|
D|--------------------------------------|   Repeat through the song
A|--0-0---0-0---0-0---0-0---0-0---0-0---|
D|--0-0---0-0---0-0---0-0---0-0---0-0---|


Thats all I've got, but strings and guitar are the important stuff of the song. Hope you like it 
Tap to rate this tab
 
# A B C D E F G H I J K L M N O P Q R S T U V W X Y Z