Song name
# A B C D E F G H I J K L M N O P Q R S T U V W X Y Z

Misc Computer Games - Fallout 3 - Yankee Doodle tab

E |--------------------------------------------| 
B |------10-12----12-10----------10-12---------| 
G |12-12-------12----------12-12-------12-11---| 
D |---------------------12---------------------| 
A |--------------------------------------------| 
E |--------------------------------------------| 

  |--------------------------------------------|
  |------10-12-13-12-10------------------------|
  |12-12----------------12-11----9-11-12-12----|
  |---------------------------12---------------|
  |--------------------------------------------|
  |--------------------------------------------|2X
__________________________________________________

E |12-14-12----12-14-15-12----12---------------| 
B |---------15-------------15----15-13-12-15---| 
G |--------------------------------------------| 
D |--------------------------------------------| 
A |--------------------------------------------| 
E |--------------------------------------------|

  |12-14-12----12-14-15-12-10-15-14-17-15-15---|
  |---------15---------------------------------|
  |--------------------------------------------|
  |--------------------------------------------|
  |--------------------------------------------|
  |--------------------------------------------|

E |17-15-------------------17------------------|
B |------17-14----------17---------------------|
G |------------14-14-18------------------------|
D |--------------------------------------------|
A |--------------------------------------------|
E |--------------------------------------------|
__________________________________________________

E |------12-14----14-12----------12-14---------| 
B |15-15-------15----------15-15-------15-14---| 
G |---------------------14---------------------| 
D |--------------------------------------------| 
A |--------------------------------------------| 
E |--------------------------------------------|

  |------12-14-15-14-12------------------------|
  |15-15----------------15-14----12-14-15-15---|
  |---------------------------14---------------| 
  |--------------------------------------------|
  |--------------------------------------------|
  |--------------------------------------------|2X
__________________________________________________

E |--------------------------------------------| 
B |12-14-12----12-14-15-12----12---------------| 
G |---------14-------------14----14-12-11-12-14| 
D |--------------------------------------------| 
A |--------------------------------------------| 
E |--------------------------------------------|

  |--------------------------------------------|
  |12-14-12----12-14-15-12-10-15-14-17-15-15---|
  |---------14---------------------------------| 
  |--------------------------------------------|
  |--------------------------------------------|
  |--------------------------------------------|2X
Tap to rate this tab
 
# A B C D E F G H I J K L M N O P Q R S T U V W X Y Z