Misc Computer Games - Doom - Bunny tab

DOOM -  Sweet Little Dead Bunny
Composed by Robert Prince
Tabbed by drawnacrol
7 String (E B G D A E B)                                  


Guitar 1
E||-------|-------|-------|-------|-------|-------|-------|-------|
B||-------|-------|-------|-------|-------|-------|-------|-------|
G||-------|-------|-------|-------|-------|-------|-------|-------|
D||-------|-------|-------|-------|-------|-------|-------|-------|
A||-------|-------|-------|-------|-------|-------|-------|-------|
E||-------|-------|-------|-------|-------|-------|-------|-------|
B||-------|-------|-------|-------|-------|-------|-------|-------|
 
 
  W                   W                   W                   W                 
-------------------|-------------------|-------------------|-------------------|
-------------------|-------------------|-------------------|-------------------|
-------------------|-------------------|-------------------|-------------------|
-------------------|-------------------|-------------------|-------------------|
--2----------------|--2----------------|--2----------------|--2----------------|
--0----------------|--0----------------|--0----------------|--0----------------|
-------------------|-------------------|-------------------|-------------------|
 
 
  PM   PM                     PM   PM                   
  S  S S  S E  H        E     S  S S  S E  H        E   
---------------------------|---------------------------|
---------------------------|---------------------------|
---------------------------|---------------------------|
------------3--2-----------|------------3--2-----------|
--3----3----3--1-----------|--3----3----3--1-----------|
--0----0----0--------------|--0----0----0--------------|
---------------------------|---------------------------|
 
 
  PM   PM                     PM   PM                   
  S  S S  S E  H        E     S  S S  S E  H        E   
---------------------------|---------------------------|
---------------------------|---------------------------|
---------------------------|---------------------------|
------------3--2-----------|------------3--2-----------|
--3----3----3--1-----------|--3----3----3--1-----------|
--0----0----0--------------|--0----0----0--------------|
---------------------------|---------------------------|
 
 
  PM   PM                     PM   PM                   
  S  S S  S E  H        E     S  S S  S E  H        E   
---------------------------|---------------------------|
---------------------------|---------------------------|
------------3--2-----------|------------3--2-----------|
--3----3----3--1-----------|--3----3----3--1-----------|
--0----0----0--------------|--0----0----0--------------|
---------------------------|---------------------------|
---------------------------|---------------------------|
 
 
  PM   PM                     PM   PM                   
  S  S S  S E  H        E     S  S S  S E  H        E   
---------------------------|---------------------------|
---------------------------|---------------------------|
---------------------------|---------------------------|
------------3--2-----------|------------3--2-----------|
--3----3----3--1-----------|--3----3----3--1-----------|
--0----0----0--------------|--0----0----0--------------|
---------------------------|---------------------------|
 
 
  PM   PM                     PM   PM                   
  S  S S  S E  H        E     S  S S  S E  H        E   
---------------------------|---------------------------|
---------------------------|---------------------------|
---------------------------|---------------------------|
---------------------------|---------------------------|
------------3--2-----------|------------3--2-----------|
--3----3----3--1-----------|--3----3----3--1-----------|
--0----0----0--------------|--0----0----0--------------|
 
 
  PM   PM                     PM   PM                   
  S  S S  S E  H        E     S  S S  S E  H        E   
---------------------------|---------------------------|
---------------------------|---------------------------|
---------------------------|---------------------------|
------------3--2-----------|------------3--2-----------|
--3----3----3--1-----------|--3----3----3--1-----------|
--0----0----0--------------|--0----0----0--------------|
---------------------------|---------------------------|
 
 
  PM   PM                     PM   PM                   
  S  S S  S E  H        E     S  S S  S E  H        E   
---------------------------|---------------------------|
---------------------------|---------------------------|
---------------------------|---------------------------|
------------3--2-----------|------------3--2-----------|
--3----3----3--1-----------|--3----3----3--1-----------|
--0----0----0--------------|--0----0----0--------------|
---------------------------|---------------------------|
 
 
  PM PM PM PM PM PM PM PM                       
  E  E  E  E  E  E  E  E     W                  
--------------------------|-------------------||
--------------------------|-------------------||
--------------------------|-------------------||
--2--2--2--2--2--2--2--2--|--4----------------||
--1--1--1--1--1--1--1--1--|--2----------------||
--0--0--0--0--0--0--0--0--|--0----------------||
--------------------------|-------------------||
 
Guitar 2: Half tone Bends

     H          Q      Q      
E||--6br--------------------||
B||-------------7br----5----||
G||-------------------------||  x 15
D||-------------------------||
A||-------------------------||
E||-------------------------||


Bass Guitar: 
5 string (G D A E B)

     E.  S E.  S E.  S E.  S    E.  S E.  S E.  S E.  S  
G||--------------------------|--------------------------|
D||--------3-----------3-----|--------3-----------3-----|
A||--2-----2-----2-----2-----|--2-----2-----2-----2-----|
E||--0-----------0-----------|--0-----------0-----------|
B||--------------------------|--------------------------|
 
 
  E.  S E.  S E.  S E.  S    E.  S E.  S E.  S E.  S  
--------------------------|--------------------------|
--------3-----------3-----|--------3-----------3-----|
--2-----2-----2-----2-----|--2-----2-----2-----2-----|
--0-----------0-----------|--0-----------0-----------|
--------------------------|--------------------------|
 
 
  E.  S E.  S E.  S E.  S    E.  S E.  S E.  S E.  S  
--------3-----------3-----|--------3-----------3-----|
--2-----2-----2-----2-----|--2-----2-----2-----2-----|
--0-----------0-----------|--0-----------0-----------|
--------------------------|--------------------------|
--------------------------|--------------------------|
 
 
  E.  S E.  S E.  S E.  S    E.  S E.  S E.  S E.  S  
--------------------------|--------------------------|
--------3-----------3-----|--------3-----------3-----|
--2-----2-----2-----2-----|--2-----2-----2-----2-----|
--0-----------0-----------|--0-----------0-----------|
--------------------------|--------------------------|
 
 
  E.  S E.  S E.  S E.  S    E.  S E.  S E.  S E.  S  
--------------------------|--------------------------|
--------------------------|--------------------------|
--------3-----------3-----|--------3-----------3-----|
--2-----2-----2-----2-----|--2-----2-----2-----2-----|
--0-----------0-----------|--0-----------0-----------|
 
 
  E.  S E.  S E.  S E.  S    E.  S E.  S E.  S E.  S  
--------------------------|--------------------------|
--------3-----------3-----|--------3-----------3-----|
--2-----2-----2-----2-----|--2-----2-----2-----2-----|
--0-----------0-----------|--0-----------0-----------|
--------------------------|--------------------------|
 
 
  E.  S E.  S E.  S E.  S    E.  S E.  S E.  S E.  S  
--------------------------|--------------------------|
--------3-----------3-----|--------3-----------3-----|
--2-----2-----2-----2-----|--2-----2-----2-----2-----|
--0-----------0-----------|--0-----------0-----------|
--------------------------|--------------------------|
 
 
  E  E  E  E  E  E  E  E     W                  
--------------------------|-------------------||
--3--2--1--0--------------|-------------------||
--------------4--3--1--2--|-------------------||
--------------------------|--0----------------||
--------------------------|-------------------||

Tap to rate this tab
 
# A B C D E F G H I J K L M N O P Q R S T U V W X Y Z