Song name
# A B C D E F G H I J K L M N O P Q R S T U V W X Y Z

Misc Computer Games - Kings Quest V - Bandit Camp tab

Kings Quest V - The Bandit Camp                          
Tabbed by drawnacrol


Acoustic Guitar
     S S S S S S S S S S S S S S S S    S S S S S S S S S S S S S S S S  
E||----------------------------------|----------------------------------|
B||----4---4---4---4---4---4---4---4-|----4---4---4---4---4---4---4---4-|
G||----4---4---4---4---4---4---4---4-|----4---4---4---4---4---4---4---4-|
D||----------------------------------|----------------------------------|
A||--2---------------2---------------|--2---------------2---------------|
E||----------------------------------|----------------------------------|
 
 
  S S S S S S S S S S S S S S S S    S S S S S S S S S S S S S S S S  
------------0---0-----------------|----------------------------------|
----4---4---1---1---4---4---4---4-|----4---4---4---4---4---4---4---4-|
----4---4---2---2---4---4---4---4-|----4---4---4---4---4---4---4---4-|
----------------------------------|----------------------------------|
--2-------0-------2---------------|--2---------------2---------------|
----------------------------------|----------------------------------|
 
 
  S S S S S S S S S S S S S S S S    S S S S S S S S S S S S S S S S  
------------0---0-----------------|----------------------------------|
----4---4---1---1---4---4---4---4-|----1---1---1---1---1---1---1---1-|
----4---4---2---2---4---4---4---4-|----2---2---2---2---2---2---2---2-|
----------------------------------|----------------------------------|
--2-------0-------2---------------|--0-------------------0---0---0---|
----------------------------------|----------------------------------|
 
 
  S S S S S S S S S S S S S S S S    S S S S S S S S S S S S S S S S  
----------------------------------|----------------------------------|
----4---4---4---4---4---4---4---4-|----1---1---1---1---1---1---1---1-|
----4---4---4---4---4---4---4---4-|----2---2---2---2---2---2---2---2-|
----------------------------------|----------------------------------|
--2---------------2---------------|--0---------------0---0---0---0---|
----------------------------------|----------------------------------|
 
 
  S S S S S S S S S S S S S S S S    S S S S S S S S S S S S S S S S  
----------------------------------|----------------------------------|
----4---4---4---4---4---4---4---4-|----1---1---1---1---1---1---1---1-|
----4---4---4---4---4---4---4---4-|----2---2---2---2---2---2---2---2-|
----------------------------------|----------------------------------|
--2---------------2---------------|--0---0---0---0---0---0---0---0---|
----------------------------------|----------------------------------|


Acoustic Bass
     E  E  E  E  E  E  E  E     E  E  E  E  E  E  E  E   
G||--------------------------|--------------------------|
D||--9-----9-----9-----9-----|--9-----9-----9-----9-----|
A||-----9-----9-----9-----9--|-----9-----9-----9-----9--|
E||--------------------------|--------------------------|
 
 
  E  E  E  E  E  E  E  E     E  E  E  E  E  E  E  E   
--------------------------|--------------------------|
--9-----7-----9-----9-----|--9-----9-----9-----9-----|
-----9-----7-----9-----9--|-----9-----9-----9-----9--|
--------------------------|--------------------------|
 
 
  E  E  E  E  E  E  E  E      E   E   E   E   E   E   E   E   
--------------------------|----------14--------------14------|
--9-----7-----9-----9-----|------14------14------14------14--|
-----9-----7-----9-----9--|--12--------------12--------------|
--------------------------|----------------------------------|
 
 
  E  E  E  E  E  E  E  E      E   E   E   E   E   E   E   E   
--------------------------|----------14--------------14------|
--9-----9-----9-----9-----|------14------14------14------14--|
-----9-----9-----9-----9--|--12--------------12--------------|
--------------------------|----------------------------------|
 
 
  E  E  E  E  E  E  E  E      E   E   E   E   E   E   E   E   
--------------------------|----------14----------------------|
--9-----9-----9-----9-----|------14------14------14------14--|
-----9-----9-----9-----9--|--12--------------12------12------|
--------------------------|----------------------------------|



Horn
E||-------|---------------------------------------|
B||-------|---------------------------------------|
G||-------|--11---14\9-8-9-----8--8-9-11-11\9--8--|
D||-------|-----------------10--------------------|
A||-------|---------------------------------------|
E||-------|---------------------------------------|
 
    
|------------------------------|-------------------------------------|
|------------------------------|-------------------------------------|
|--11--14\9-8-9-----8----------|--11--14\9-8-9-----8--8-9-11-11\9--8-|
|---------------10-------------|---------------10--------------------|
|------------------------------|-------------------------------------|
|------------------------------|-------------------------------------|
 
 
|------------------------------|-----------------------------|
|------------------------------|--10-----------10-10---------|
|--11--14\9-8-9-------------11-|---------------------12-11-9-|
|----------------10-9----------|-----------------------------|
|------------------------------|-----------------------------|
|------------------------------|-----------------------------|
 
 
|------------------------|-----------------------------|
|------------------------|--10-10--------10-10---------|
|--11h12-11-----------11-|---------------------12-11-9-|
|------------------------|-----------------------------|
|------------------------|-----------------------------|
|------------------------|-----------------------------|
 
 
|--------------------------------------------------------|
|--------------------------------------------------------|
|--11h12p11p9-11h12p11p9-11h12p11p9-11h12p11p9-11-----11-|
|--------------------------------------------------------|
|--------------------------------------------------------|
|--------------------------------------------------------|
 
                 
|-----------------------------------|--------------------|
|--10-10--------10-10-10-10---------|--------------------|
|---------------------------12-11-9-|--11----------------|
|-----------------------------------|--------------------|
|-----------------------------------|--------------------|
|-----------------------------------|--------------------|
Tap to rate this tab
 
# A B C D E F G H I J K L M N O P Q R S T U V W X Y Z