Misc Computer Games - Metal Gear Solid Theme Acoustic tab

------------------M.G.S theme-----------------------------------------

e|----------------------------------------------------------------|
B|----------------------------------------------------------------|
G|-----------------------------------------------14--12-----------|
D|-14--12--10--12--14-----14--12-12--10--12--14---------14--10--12|
A|--------------------12------------------------------------------|
E|----------------------------------------------------------------|

e|----------------------------------------------------------------|
B|-----12-13----12-13--15--13-------------12-13-12----------------|
G|-14--------------------------14--12--14----------14--12/14------| quick slide on the 12/14
D|----------------------------------------------------------------|
A|----------------------------------------------------------------|
E|----------------------------------------------------------------|


as long as you know how the song sound you should have no probs with this tab.

gilgamesh_rulz

P.S my 1st tab hope you like
Tap to rate this tab
 
# A B C D E F G H I J K L M N O P Q R S T U V W X Y Z