Misc Computer Games - Legend Of Zelda - Storms tab

-----------------------------------------------------------------------------
	             SONG OF STORMS  Legend of Zelda
-----------------------------------------------------------------------------
Tabbed by: John P.
Email: jrp12pro@aol.com

Tuning: Drop D

if the timing doesn't make sense try listening to the song for a bit

Guitar 1 - bass

e|-------------|------------|------------|------------|
B|-------------|------------|-lead-------|------------|
G|-------------|------------|--begins----|------------|
D|-------------|------------|---here-----|------------|
A|-------------|------------|------------|0-----1--0--|
D|-0--2--3--2--|0--2--3--2--|0--2--3--2--|---0--------|

e|-------------|------|
B|-------------|------|
G|-------------|------|
D|-------------|------|
A|-------------|1--0--|
D|-0--2--3--2--|------| repeat

Guitar 2 - Rhythm

-I think it sounds best to finger-pick this part

e|------------------------|------------------------|
B|---6-6--------10-10-----|---6-6--------10-10-----|
G|---7-7---9----10-10---9-|---7-7---9----10-10---9-|
D|---7-7-8-----10-10-8--|---7-7-8-----10-10-8--|
A|-5-----7----8-------7---|-5-----7----8-------7---|
D|------------------------|------------------------| repeat

lead begins after two bars of rhythm and bass

Guitar 3 - Lead

e|---------------------12~-13121312------|----------------------------------|
B|-------15~-------15~-------------13----|----------------------------------|
G|-----------------------------------14~-|-14-------12-14~--14-------12-----|
D|-12h15-----12h15-----------------------|----12-15------------12-15----14~-|
A|---------------------------------------|----------------------------------|
D|---------------------------------------|----------------------------------|

e|---------------------12~-13121312------|----------------------------------|
B|-------15~-------15~-------------13----|----------------------------------|
G|-----------------------------------14~-|-14-------12-14~--14--------------|
D|-12h15-----12h15-----------------------|----12-15------------12~----------|
A|---------------------------------------|----------------------------------|
D|---------------------------------------|----------------------------------|

that's it. all three parts repeat and increase tempo


************************************

| /   slide up
| \   slide down
| h   hammer-on
| p   pull-off
| ~   vibrato
| +   harmonic
| x   Mute note
| b   Bend
| pb  Pre-bend
| br  Bend release
| pbr Pre-bend release
| brb Bend release bend

************************************
Tap to rate this tab
 
# A B C D E F G H I J K L M N O P Q R S T U V W X Y Z