Misc Computer Games - Final Fantasy X - Suteki Da Ne tab

My version. Its the main melody

E|-------------------3--5---6--5--3---5--3-----------------------|
B|--3---5--6--5---6-------------------------6--5-----6--5--3-----|
G|------------------------------------------------5-----------5--|
D|--0-------------------3--------------3-------------------------|
A|------------3-------------------3------------3-----5--------3--|
E|---------------------------------------------------------------|

E|-------------------3--5---6--5--3---5--3-----------------------|
B|--3---5--6--5---6-------------------------6--5-----3h5p3-------|
G|------------------------------------------------5--------------|
D|--0-------------------3--------------3-------------------------|
A|------------3-------------------3------------3-----------------|
E|---------------------------------------------------------------|
Tap to rate this tab
 
# A B C D E F G H I J K L M N O P Q R S T U V W X Y Z