Misc Computer Games - Call Of Duty Black Ops - Rebirth Island Mask Walk tab

-----------------------------------------------------------------------------
             Rebirth Island: Mask Walk - Call of Duty Black Ops
-----------------------------------------------------------------------------
Tabbed by: Deserex
Email: RyanBrangan95@gmail.com

  This is the song that plays on the mission Rebirth, when you play as Hudson and 
wear the gas mask.

Tuning:Drop D (DADGBE)
   
  Guitar comes in with heavy distortion...
e|------------------------------------------------------------|
B|------------------------------------------------------------|
G|------------------------------------------------------------|
D|------------------------------------------------------------| x2
A|---2-2--2-------3-3--2------2-2-3--0-0-2--------------------|
D|---2-2--2-------3-3--2------2-2-3--0-0-2--------------------|

    Then comes the other part.  Let each note ring.  
e|------------------------------------------------------------|
B|------------------------------------------------------------|
G|--------2----2---3---2---2/5--------------------------------|
D|---0--0----0---0---0---0------------------------------------| x2
A|------------------------------------------------------------|
D|------------------------------------------------------------|
   
    Near the end... 
e|----------------------------------------------------------------|
B|----------------------------------------------------------------|
G|--------------------------------------2/5-2---------------------|
D|----------------------------------------------------------------|
A|-2-2--2----2-2--2----2-2--2----2-2--2---------------------------|
D|-2-2--2----2-2--2----2-2--2----2-2--2---------------------------|

*************************
/ slide
*************************

Well thats it.  Pretty easy to play.
Tap to rate this tab
 
# A B C D E F G H I J K L M N O P Q R S T U V W X Y Z