Song name
# A B C D E F G H I J K L M N O P Q R S T U V W X Y Z

Misc Computer Games - Earthbound - New Age Retro Hippie tab

Ok so this is my first tab. I know it isn't perfect but it sounds good enough.

E|------------------------------------------------------------------------------------------|
B|-----------10--10--10--10--10--7-----7-----------------7-----7--10--7-----7--10--7-----7--|
G|--5--6--9-------------------------9-----5--5--5--5--5-----9------------9------------9-----|
D|------------------------------------------------------------------------------------------|
A|------------------------------------------------------------------------------------------|
E|------------------------------------------------------------------------------------------|

E|--8b8b--10--8--9--10--8--9--10--8--9--10--8-----|
B|------------------------------------------------|
G|------------------------------------------------|
D|------------------------------------------------|
A|------------------------------------------------|
E|------------------------------------------------|

E|--------------------------------|
B|--10--10--10--8--10--10--8--10--|
G|--------------------------------|
D|--------------------------------|
A|--------------------------------|
E|--------------------------------|

E|---------------------------------------------------------------------------------|
B|--13--10--8-----------------------------------------------10--8------------------|
G|-------------9--7--7--7--7--7--5-----------------------9---------9--7------7-----|
D|----------------------------------7--7--7--5--------7------------------10-----7--|
A|----------------------------------------------7----------------------------------|
E|---------------------------------------------------------------------------------|

E|------------------------------------------------|
B|------------------------------------------------|
G|------------------------------------------------|
D|------------------------------------------------|
A|--7--7--9--7--7--7--9--7--7--7--9--7--10--7--9--|
E|--5--5--5--5--5--5--5--5--5--5--5--5--5---5--5--|

E|------------------------------------------------|
B|------------------------------------------------|
G|------------------------------------------------|
D|------------------------------------------------|
A|--7--7--9--7--7--7--9--7--7--7--9--7--10--7--9--|
E|--5--5--5--5--5--5--5--5--5--5--5--5--5---5--5--|


E|------------------------------------------------|
B|------------------------------------------------|
G|------------------------------------------------|
D|--7--7--9--7--7--7--9--7--7--7--9--7--10--7--9--|
A|--5--5--5--5--5--5--5--5--5--5--5--5--5---5--5--|
E|------------------------------------------------|

E|------------------------------------------------|
B|------------------------------------------------|
G|------------------------------------------------|
D|------------------------------------------------|
A|--7--7--9--7--7--7--9--7--7--7--9--7--10--7--9--|
E|--5--5--5--5--5--5--5--5--5--5--5--5--5---5--5--|


E|--------------------------------------------------|
B|--------------------------------------------------|
G|--------------------------------------------------|
D|--9--9--11-9--9--9--11-9--7--7--9--7--7--7--9--7--|
A|--7--7--7--7--7--7--7--7--5--5--5--5--5--5--5--5--|
E|--------------------------------------------------|

E|--------------------------------------------|
B|--------------------------------------------|
G|--------------------------------------------|
D|--------------------------------------------|
A|--7--7--9--7--7--7--9--7--9--9--9--9--9--9--|
E|--5--5--5--5--5--5--5--5--7--7--7--7--7--7--|

ITS A LOOP SO IT JUST GOES OVER AND OVER
Tap to rate this tab
 
# A B C D E F G H I J K L M N O P Q R S T U V W X Y Z