Song name
# A B C D E F G H I J K L M N O P Q R S T U V W X Y Z

Misc Computer Games - Legend Of Zelda - Fairy Fountain tab

Hello World!
I was bored and decided to tab out a song from my all time favourite game:
Legend of Zelda - Ocarina of time.
This is only the 16th note part, which is really the part you want to play 
+ I can't be arsed to tab out the other guitar/harp/synthesizer thingy. 
This is what I ended up with, and that should be it. Enjoy


        Standard Tuning
      -------------------


e|--17----------15----------14----------15-------------|
b|-----15----------15----------15----------15----------|
g|--------15----------15----------15----------15-------|
d|-----------17----------17----------17----------17----|
a|-----------------------------------------------------|
e|-----------------------------------------------------|

e|--15----------13----------12----------13-------------|
b|-----13----------13----------13----------13----------|
g|--------14----------14----------14----------14-------|
d|-----------15----------15----------15----------15----|
a|-----------------------------------------------------|
e|-----------------------------------------------------|

e|--13----------12----------11----------12-------------|
b|-----11----------11----------11----------11----------|
g|--------12----------12----------12----------12-------|
d|-----------14----------14----------14----------14----|
a|-----------------------------------------------------|
e|-----------------------------------------------------|

e|--12----------10----------9----------10--------------|
h|-----10----------10---------10----------10-----------|
g|--------10---------10----------10----------10--------|
d|-----------12---------12----------12----------12-----|
a|-----------------------------------------------------|
e|-----------------------------------------------------|

e|--17----------15----------14----------15-------------|
h|-----15----------15----------15----------15----------|
g|--------15----------15----------15----------15-------|
d|-----------17----------17----------17----------17----|
a|-----------------------------------------------------|
e|-----------------------------------------------------|

e|--18----------17----------16----------17-------------|
h|-----16----------16----------16----------16----------|
g|--------17----------17----------17----------17-------|
d|-----------15----------15----------15----------15----|
a|-----------------------------------------------------|
e|-----------------------------------------------------|

e|--20----------18----------17----------18-------------|
h|-----15----------15----------15----------15----------|
g|--------15---------15----------15-----------15-------|
d|-----------17---------17----------17-----------17----|
a|-----------------------------------------------------|
e|-----------------------------------------------------|

e|--17----------15----------13----------12-------------|
h|-----------------------------------------------------|
g|-----15-12-------15-12-------15-12-------15-12-------|
d|-----------14----------14----------14----------14----|
a|-----------------------------------------------------|
e|-----------------------------------------------------|

  Repeat a couple of times and voila! <3

  Tabbed by Andreas Buur
Tap to rate this tab
 
# A B C D E F G H I J K L M N O P Q R S T U V W X Y Z