Song name
# A B C D E F G H I J K L M N O P Q R S T U V W X Y Z

Misc Computer Games - Team Fortress 2 Theme tab

-----------------------------------------------------------------------------
	 Team Fortress 2 Theme (metal) - Cover by Andy Hauck (warh34d)
-----------------------------------------------------------------------------
Tabbed by: Heatfist
Email: Davidplos@hotmail.com
Tuning: Standard (EADGBe)

(0:00 - 0:15) Played Clean
|----------------------------------------------------------------------------|
|----------------------------------------------------------------------------|
|----------------------------------------------------------------------------|
|----------------------------------------------------------------------------|
|----------------------------------------------------------------------------|
|--0-0-0-3-3-3-2-2-----0-0-0-3-3-3-2-2---7-7-5-5-6-7------0-0-0-3-3-3-2-2----|

(0:16 - 0:18)Played w/ Distortion  (0:19 - 0:28)
---------------------------------| |--------------------------------------|
---------------------------------| |--------------------------------------|
---------------------------------| |--------------------------------------|X3
---------------------------------| |--------------------------------------|
-7/9-9-7/9-9-7/9-9-7/9-9--9\8\7\5| |-----------5-5-5-------9-9-9-7-7/8/9--|
-5/7-7-5/7-7-5/7-7-5/7-7--7\6\5\3| |-----0-0-0-3-3-3-0-0-0-7-7-7-5-5/6/7--|

(0:29 - 0:33)                      (0:34 - 1:15)
|--------------------------------| |-----------------------------------------|
|--------------------------------| |-----------------------------------------|
|--------------------------------| |-----------------------------------------|
|--------------------------------| |-----------------------------------------|
|7/9-9-7/9-9-7/9-9-7/9-9--9\8\7\5| |------------5-5-5-------9-9-9-7-7/8/9----|
|5/7-7-5/7-7-5/7-7-5/7-7--7\6\5\3| |------0-0-0-3-3-3-0-0-0-7-7-7-5-5/6/7----|


-----------------------------------------------------------------------------|
-----------------------------------------------------------------------------|
-----------------------------------------------------------------------------|
---------5-5-5-------7-7-7-9-9/8/7------------5-5-5-------9-9-9-7-7/8/9------|
---0-0-0-3-3-3-0-0-0-5-5-5-7-7/6/5------0-0-0-3-3-3-0-0-0-7-7-7-5-5/6/7------|

---------------------------------|
---------------------------------| This section is played 3 times
---------------------------------| The second play through (0:47-0:1:01)is
-7/9-9-7/9-9-7/9-9-7/9-9--9\8\7\5| tremolo picked
-5/7-7-5/7-7-5/7-7-5/7-7--7\6\5\3| The 3rd (1:02-1:15) returns to normal

1:14 - 1:31                                               (0:32-0:33)
|---------------------------------------------------|     |------------|
|---------------------------------------------------|     |------------|
|---------------------------------------------------|X2   |------------|
|---------------------------------------------------|     |------------|
|---------------------------------------------------|     |-11\9/10/11-|
|--0-0-0-3-3-3-2-2-----0-0-0-3-3-3-2-2---7-7-5-5-6-7|     |-9-\7/8/-9--|

(1:36-2:19)
|----------------------------------------------------------------------------|
|----------------------------------------------------------------------------|
|----------------------------------------------------------------------------|
|----------------------------------------------------------------------------|
|------0-0-0-0---5-4-3-0-0---7-8-9------0-0-0-0---5-4-3-0-0---7-8-7----------|
|------0-0-0-0---3-2-1-0-0---5-6-7------0-0-0-0---3-2-1-0-0---9-6-5----------|

---------------------------------------------------------|
---------------------------------------------------------|
---------------------------------------------------------|
---------------------------------------------------------| X2
0-0-0-0---5-4-3-0-0---7-8-9----7\9-9-7\9-9-7\9-9--9/8/7/5|
0-0-0-0---3-2-1-0-0---5-6-7----5\7-7-5\7-7-5\7-7--7/6/5/3|

************************************
| \   slide up
| /   slide down
************************************
Tap to rate this tab
 
# A B C D E F G H I J K L M N O P Q R S T U V W X Y Z