Misc Computer Games - Battle For Middle Earth - Spreading Hope tab

Battle for middle earth - Spreading Hope

http://www.youtube.com/watch?v=jKr-gWKkwuM
exelent tune !!!

tab:a.k Senftleber :}

|-----------------------------------------------| 
|-----------------------------------------------| 
|-----------------------------5-3---------------| 
|-------------------5-6-----5-------------------| 
|-3-3-6-8-8-8-x2--3-------3---------------------| 
|-----------------------------------------------| 


|-----------------------3-4---4-3---------------| 
|-----4--3-4----------------------6-4-3---------| 
|---3--------5------3-5-------------------------| 
|-5---------------------------------------------| 
|-----------------------------------------------| 
|-----------------------------------------------| 


                   1     2

|------------3--I--6--I--5--I----------------------| 
|---4-3--4-6----I-----I-----I----------------------| 
|-5-------------I-----I-----I----------------------| 
|---------------I-----I-----I----------------------| 
|---------------I-----I-----I----------------------| x2
|---------------I-----I-----I----------------------| 


|--8-3-8-6-5-3---3-------------8----------------| 
|--------------6-----4-3------------------------| 
|------------------5-----5--5-------------------| 
|-----------------------------------------------| 
|-----------------------------------------------| 
|-----------------------------------------------| 

at some point it goes a half tone up
Tap to rate this tab
 
# A B C D E F G H I J K L M N O P Q R S T U V W X Y Z