Misc Computer Games - Black Ops - Rooftops tab

Call of Duty: Black Ops - Rooftops

http://www.youtube.com/watch?v=0abCc0er1Zc

Artist: Kevin Sherwood
Guitar: Kevin Sherwood

Tuning 1: 7 String tuned Low to High (A D G C F a d)
Tuning 2: 8 String tuned Standard (F# B E A D G b e)

This song has misled many people. The first note
does NOT start with an E and is NOT in drop D tuning.
This song is played using an 8 string guitar. The Main
part of the song requires as least a Low A#, and then the
part at 2:43 in the song goes to a low F# requiring tuning
down. In this tab, I'll show the higher notes using a
7 string method, then the lower notes using an 8 string
method.

Riff 1 (2:08 - 2:15)(Delay for Repeated Notes)
D|--------------------------------|
A|--------------------------------|
F|--------------------------------|
C|--------------------------------|
G|--------------------------------|
D|--------------------------------|
A|--3-3---3-3---11-3-3-4-1-1-3-3--|
                ..                 PM

Riff 2 (2:15 - 2:22)(Delay for Repeated Notes)
D|--------------------------------|
A|--------------------------------|
F|--------------------------------|
C|--------------------------------|
G|--------------------------------|
D|--------------------------------|
A|--3-3---11-3-3---3-3-4-1-1-3-3--|
          ..                       PM

Riff 3 (2:22 - 2:29)(Delay for Repeated Notes)
D|--------------------------------|
A|--------------------------------|
F|--------------------------------|
C|--------------------------------|
G|--------------------------------|
D|--------------------------------|
A|--11-3-3---3-3---3-3-4-1-1-3-3--|
    ..                             PM

Riff 4 (2:29 - 2:36)(Delay for Repeated Notes)
D|-----------------------------------|
A|-----------------------------------|
F|-----------------------------------|
C|-----------------------------------|
G|-----------------------------------|
D|-----------------------------------|
A|--11-3-3---3-3---11-3-3-4-1-1-3-3--|
    ..             ..                 PM

Riff 5 (2:36 - 2:43)(Delay for Repeated Notes)
D|----------------------------------|
A|----------------------------------|
F|----------------------------------|
C|----------------------------------|
G|----------------------------------|
D|----------------------------------|
A|--3-3---3-3---3-3-4-1-1-3-3-4-1-1-|

Riff 6 (2:43 - 2:50)(Delay for Repeated Notes)
E |-------------------------------|
B |-------------------------------|
G |-------------------------------|
D |-------------------------------|
A |-------------------------------|
E |-------------------------------|
B |-------------------------------|
F#|--0-0---00-0-0---00-0-0---0-0--|
           ..       ..             PM

Song repeats in this style.
Tap to rate this tab
 
# A B C D E F G H I J K L M N O P Q R S T U V W X Y Z