Song name
# A B C D E F G H I J K L M N O P Q R S T U V W X Y Z

Misc Computer Games - Black Ops - Mask Walk tab

Call of Duty: Black Ops - Mask Walk

http://www.youtube.com/watch?v=uS5iiwa2Chw

Artist: Kevin Sherwood
Guitar: Kevin Sherwood

Tuning: Low to High (A D G C F a d)

Kevin Sherwood (a music composer for Treyarch) primarily
uses an 8 string guitar tuned 1 step down, but this song
In particular doesn't use the lower E string, so for this
i tabbed using a 7 string. If you do NOT have a 7 string,
then simply discard of the higher D string and just use:
(A D G C F a) You'll need thicker strings.  

Riff 1 (Drive/Dirty channel) (NOT distortion)
D|-----------------------------|
A|-----------------------------|
F|-----------------------------|
C|--44-4---55-5---77-6---66-5--|
G|--xx-x---xx-x---xx-x---xx-x--|
D|--22-2---33-2---55-4---44-3--|
A|--00-0---00-0---00-0---00-0--|

Riff 2 (Let notes ring out with each other)
D|-------------------------------|
A|-------7~---7~--8~---7~---10~--|
F|-------------------------------|
C|--9~-9~---9~--9~---9~---9~-----|
G|-------------------------------|
D|-------------------------------|
A|-------------------------------|
Tap to rate this tab
 
# A B C D E F G H I J K L M N O P Q R S T U V W X Y Z