Misc Computer Games - Tenchu - Wrath Of Heaven tab

"Tenchu: Wrath Of Heaven Intro"
Standard Tuning

E|-------------------------------------|
B|-------------------------------------|
G|-----7--7--5-------------------------|
D|--5-----------8--7----5--7--8--7-----|
A|----------------------------------8--|
E|-------------------------------------|

E|-------------------------------------|
B|-------------------------------------|
G|-----7--7--5-------------------------|
D|--5-----------8--7----5--7--8--7-----|
A|-------------------------------------|
E|-------------------------------------|

Well, that is pretty much it. Enjoy!
Tap to rate this tab
 
# A B C D E F G H I J K L M N O P Q R S T U V W X Y Z