Song name
# A B C D E F G H I J K L M N O P Q R S T U V W X Y Z

Misc Computer Games - Tetris Theme tab

Tabbed by: SethMegadefan
email: rdlilly@mchsi.com
Tuning: Standard (E A D G B e)

This is the original Tetris theme song. It's an awesome song so I figured it out and tabbed it. Enjoy!

Intro
 H           H            H           H
|12----------------------|------------------------|
|------------13----------|15----------12----------|
|------------------------|------------------------|
|------------------------|------------------------|
|------------------------|------------------------|
|------------------------|------------------------|

 H           H            W
|------------------------|------------------------|
|13----------------------|------------------------|
|------------14----------|13~---------------------|
|------------------------|------------------------|
|------------------------|------------------------|
|------------------------|------------------------|

 H           H            H           H
|12----------------------|------------------------|
|------------13----------|15----------12----------|
|------------------------|------------------------|
|------------------------|------------------------|
|------------------------|------------------------|
|------------------------|------------------------|

 Q     Q     H            W
|------12----17----------|16~---------------------|
|13----------------------|------------------------|
|------------------------|------------------------|
|------------------------|------------------------|
|------------------------|------------------------|
|------------------------|------------------------|

Melody:
 Q     E  E  Q     E  E   Q     E  E  Q      E  E
|12----------------------|------------12----------|
|------12-13-15----13-12-|---------13-------15-13-|
|------------------------|14----14----------------|
|------------------------|------------------------|
|------------------------|------------------------|
|------------------------|------------------------|

 Q     E  E  Q     Q      Q     Q     H
|------------------12----|------------------------|
|12----12-13-15----------|13----------------------|
|------------------------|------14----14~---------|
|------------------------|------------------------|
|------------------------|------------------------|
|------------------------|------------------------|

(e) Q     E  Q     E  E   Q.       E  Q     E  E
|---------13-17----15-13-|12----------12----------|
|---15-------------------|---------13-------15-13-|
|------------------------|------------------------|
|------------------------|------------------------|
|------------------------|------------------------|
|------------------------|------------------------|

 Q     E  E  Q     Q      Q     Q     H
|------------------12----|------------------------|
|12----12-13-15----------|13----------------------|
|------------------------|------14----14~---------|
|------------------------|------------------------|
|------------------------|------------------------|
|------------------------|------------------------|

Then just play it as many times as necessary. Simple but effective.

Tablature notation:
~  Vibrato
() Rest
E  Eight note
Q  Quarter note
Q. Dotted quarter note (length of 3 eighth notes)
H  Half note
W  Whole note
Tap to rate this tab
# A B C D E F G H I J K L M N O P Q R S T U V W X Y Z